Song name
# A B C D E F G H I J K L M N O P Q R S T U V W X Y Z

The American Analog Set - Cool Kids Keep tab

Help us improve GuitareTab! Take a short survey!
Highlighted       Show chord diagrams
Cool Kids Keep
The American Analog Set

The song is easy, just listen to the song when you playing it. The chord
progression can be hard to
figure out (when to switch from "Asus" to "D9"). This song was made from the
acoustic version ("Set
Free (Demos)"), but the chorus part was taken off the original song. I think the chorus sounds
interesting thrown into the acoustic version, but it's not essential.

Tuning: Drop D (DADGBe)

Verse:

  Asus   D9

e|--0------------------------------------------------------------------------|
B|--3----1-------------------------------------------------------------------|
G|--2----2-------------------------------------------------------------------|
D|--0----0-------------------------------------------------------------------|
A|--0----0-------------------------------------------------------------------|
D|--0----0-------------------------------------------------------------------|


Chorus:

    G

e|------------------------------------------------------------------------------|
B|-(0)--------------------------------------------------------------------------|
G|--0---------------------------------------------------------------------------|
D|--5---------------------------------------------------------------------------|
A|--5---------------------------------------------------------------------------|
D|--5---------------------------------------------------------------------------|


Leave a comment or correction if you would like!
AmAnSet////
Related for Cool Kids Keep tab