Song name
# A B C D E F G H I J K L M N O P Q R S T U V W X Y Z

The American Analog Set - First Of Four tab

First of Four
The American Analog Set

As with most of my tabs, play the song while listening to it to get the timing down.

Tuning: Standard

Verse:

In the verse, there is a second guitar, but I just play the part to accommodate the 
and simple riff.

   G/C  G/Cadd9

e|-------------------------------|
B|-(0)--(0)--------0-------------|
G|--0----0------0---------0------|
D|--2----0--0h2-------0h2---2-0--|
A|--3----3--(3)------------------|
E|--3----3--(3)------------------|

Chorus:

Same Idea; different riff.

   G/C  G/Cadd9

e|---------------------------------------------------------------------------|
B|-(0)--(0)-------0----------------------------------------------------------|
G|--0----0---0h2-----2-0-----------------------------------------------------|
D|--2----0-------------------------------------------------------------------|
A|--3----3-------------------------------------------------------------------|
E|--3----3-------------------------------------------------------------------|

Bridge: "The first of four..."

   A/D  G/C

e|------------------------------------------------------------------------------|
B|-----(0)----------------------------------------------------------------------|
G|--0---0-----------------------------------------------------------------------|
D|--4---2-----------------------------------------------------------------------|
A|--5---3-----------------------------------------------------------------------|
E|--5---3-----------------------------------------------------------------------|

Get that groove going, and you'll get it! Please comment and make corrections.
AmAnSet////
Tap to rate this tab
# A B C D E F G H I J K L M N O P Q R S T U V W X Y Z