Song name
# A B C D E F G H I J K L M N O P Q R S T U V W X Y Z

The American Analog Set - Weather Report tab

Highlighted       Show chord diagrams
Weather Report
The American Analog Set

     As you probably know, this song doesn't have a lot of guitar in it, but the guitar
it does have is repetitively beautiful, and easy to pick up.

Tuning: Standard

Verse (1): Sometimes Andrew plays an open "B" after each chord is struck once.

    Em G   A  G

e|---------------------------------------------------------------------------|
B|-(0)-----------------------------------------------------------------------|
G|--0--0---0--0--------------------------------------------------------------|
D|--2--0---2--0--------------------------------------------------------------|
A|--2--2---0--2--------------------------------------------------------------|
E|--0--3--(0)--3-------------------------------------------------------------|

Verse (2): This is played at the end of the song. Its just an acoustic part.

   Em  G--G  A  G--G

e|---------------------------------------------------------------------------|
B|---------------------------------------------------------------------------|
G|--0--0--0-----0--0---------------------------------------------------------|
D|--2--4--0--0--4--0---------------------------------------------------------|
A|--2--5--5--7--5--5---------------------------------------------------------|
E|--0--3--3--5--3--3---------------------------------------------------------|



Leave a comment or correction if you would like :)
AmAnSet////
Tap to rate this tab
 
# A B C D E F G H I J K L M N O P Q R S T U V W X Y Z