Song name
# A B C D E F G H I J K L M N O P Q R S T U V W X Y Z

The American Analog Set - Promise Of Love tab

Promise of Love
The American Analog Set

Tuning: Drop D (DADGBe)

Verse:

e|---------------------------------------------------------------------------|
B|---------------------------------------------------------------------------|
G|---------------------------------------------------------------------------|
D|--7-7--4-4--5-5--0-0-2-4---------------------------------------------------|
A|--0-0--0-0--0-0--0-0-0-0---------------------------------------------------|
D|--0-0--0-0--0-0--0-0-0-0---------------------------------------------------|

Chorus:

e|---------------------------------------------------------------------------|
B|---------------------------------------------------------------------------|
G|---------------------------------------------------------------------------|
D|--5-5--5-5--5-5--0-0-2-4---------------------------------------------------|
A|--0-0--0-0--0-0--0-0-0-0---------------------------------------------------|
D|--0-0--0-0--0-0--0-0-0-0---------------------------------------------------|

Easy-Squizee, Simple-Dimple
AmAnSet////
Tap to rate this tab
# A B C D E F G H I J K L M N O P Q R S T U V W X Y Z