Song name
# A B C D E F G H I J K L M N O P Q R S T U V W X Y Z

The American Analog Set - Dr Pepper tab

Dr. Pepper
The American Analog Set

     This song was formulated from the original song "The Wait".
Although Dr. Pepper rejected it for a commercial, I think it's a
wonderful little jingle. As with most of my tabs: listen to the
song and figure out how to play it.

Tuning: Standard (EADGBe)

Intro:
    G

e|---------------------------------------------------------------------------|
B|---------------------------------------------------------------------------|
G|----------0-0-0-0----------------------------------------------------------|
D|------0-0-0-0-0-0----------------------------------------------------------|
A|--2-2-2-2-2-2-2-2----------------------------------------------------------|
E|--3-3-3-3-3-3-3-3----------------------------------------------------------|

Verse:
   D         G

e|---------------------------------------------------------------------------|
B|---------------------------------------------------------------------------|
G|---------------------------------------------------------------------------|
D|-4-0-4-0-----0---0---------------------------------------------------------|
A|--5-5-5-5--2---2-----------------------------------------------------------|
E|------------3-3-3----------------------------------------------------------|

Chorus:
   D       G   A    D     G    D

e|---------------------------------------------------------------------------|
B|-------0---------------------3---------------------------------------------|
G|---0-------0------0-0--------2---------------------------------------------|
D|-----4---------0--4-4\--0-0--0---------------------------------------------|
A|-5----------------5-5\--2-2--0---------------------------------------------|
E|---------3---5----------3-3------------------------------------------------|

\ = Slide Down


AmAnSet////
Tap to rate this tab
# A B C D E F G H I J K L M N O P Q R S T U V W X Y Z