Song name
# A B C D E F G H I J K L M N O P Q R S T U V W X Y Z

The American Analog Set - Two Way Diamond I tab

Two Way Diamond I
The American Analog Set

  This song is very interesting. Just listening to it brings feelings of nostalgia.
Play along to the song to master the guitar part.

Intro:

e|-----------|
B|-----------|
G|--2-2p0----|
D|-----------|
A|-----------|
E|--------0--|

Main Riff:

e|---------------------------------------------------------------------------|
B|---------------------------------------------------------------------------|
G|---------------------------------------------------------------------------|
D|--5--7--5------------5--7--5-----------5--7--5--5--4--2--2/4--4p0--2-------|
A|--7--5--7------------7--5--7-----------7--5--7--7--5--2--2/5--5----2-------|
E|----------0-0-0-0-0----------0-0-0-0-0-------------------------------------|


Main Riff Variation: This is the part before the breakdown starting at about 2:40 min.

e|---------------------------------------------------------------------------|
B|---------------------------------------------------------------------------|
G|---------------------------------------------------------------------------|
D|--5--7--5------------5--7--5-----------5--7--9--5--7--12\9--5--4p0--2------|
A|--7--5--7------------7--5--7-----------7--5--7--7--5--10\7--7--5----2------|
E|----------0-0-0-0-0----------0-0-0-0-0-------------------------------------|


The Breakdown: (strumming pattern not shown)

e|-----------------------------------0---------------------------------------|
B|----------------------0-------------0--------------------------------------|
G|------------------2p0----------------4\2-2-2p0-----------------------------|
D|--------------2p0----------------------------------------------------------|
A|--2--2/4-7--------------2-2/4-7--------------------------------------------|
E|--0--3/5-7--0-----------0-3/5-7--0-----------------------------------------|


Outro: Just repeat the last part of the breakdown.

e|--0------------------------------------------------------------------------|
B|---0-----------------------------------------------------------------------|
G|----4\2-2-2p0---2-2p0------------------------------------------------------|
D|---------------------------------------------------------------------------|
A|---------------------------------------------------------------------------|
E|----------------------0----------------------------------------------------|



p = pull-off
/ = slide-up
\ = slide down


TheAmAnSet////
Tap to rate this tab
# A B C D E F G H I J K L M N O P Q R S T U V W X Y Z