Song name
# A B C D E F G H I J K L M N O P Q R S T U V W X Y Z

The American Analog Set - Hard To Find tab

Hey guys,
pretty soothing song, itsn't it?
Here's what I found out:

Guitar 1 (whole song, except during vocals):
e|---------------------------------------------------------------------------|
B|---------------------------------------------------------------------------|
G|---------------------------------------------------------------------------|
D|-2-0-2-0-2-0-2-0-2-0-2-0---------2-0-2-0-2-0-2-0-2-0-2-0--------(...)------|
A|-------------------------2-0-2-0-------------------------2-0-2-0-----(...)-|
E|---------------------------------------------------------------------------|

Guitar 2 (whole song, except during vocals, drop D):
e|---------------------------------------------------------------------------|
B|---------------------------------------------------------------------------|
G|---------------------------------------------------------------------------|
D|---------------------------------------------------------------------------|
A|---2----2----5----5--0----0------------------------------------------------|
D|-2----2----5----5------0----0----5-5----7-7--(...)----end on--2------------|


There also is something like a synthesizer:
e|---------------------------------------------------------------------------|
B|---------------------------------------------------------------------------|
G|---------------------------------------------------------------------------|
D|-----12-14--------12-12--------12-16--------12--14-------------------------|
A|--12-----------12-----------12-----------12--------------------------------|
E|---------------------------------------------------------------------------|

Sorry, didnt tab the xylophone or whatever ;-)

Bass:
G|---------------------------------------------------------------------------|
D|------2---------0---------4---------2--------------------------------------|
A|----0---------2---------0---------0----------------------------------------|
E|--0---------3---------5---------3------------------------------------------|

Hope you like it,
Greetz

Marcus Geiger
Tap to rate this tab
# A B C D E F G H I J K L M N O P Q R S T U V W X Y Z