Song name
# A B C D E F G H I J K L M N O P Q R S T U V W X Y Z

The American Analog Set - The Green Green Grass tab

This song is pretty easy. It's just the same stuff over and over.

This is the intro/verses:

E--------------------|
B--------------------|
G--------------------|
D-5-7-5-5--5-7-3-3---|
A-5-7-5-5--5-7-3-3---|
E-3-5-3-3--3-5-1-1---|

And then this is the part between the verses, and at the end.

E------------------------|
B------------------------|
G------------------------|
D-3-5-3--3--3-3--3-3-5---|
A-3-5-3--3--3-3--3-3-5---|
E-1-3-1--1--1-1--1-1-3---|

As always, you have to listen to the song to get the rhythm. I sort of spaced them out 
the rhythm, but you can figure it out. It's not that hard.

Hope you like it!

www.amanset.com
Tap to rate this tab
# A B C D E F G H I J K L M N O P Q R S T U V W X Y Z