Song name
# A B C D E F G H I J K L M N O P Q R S T U V W X Y Z

The American Analog Set - Born On The Cusp tab

Born On The Cusp
The American Analog Set

     Ok so I'm basing this tab off of the "Set Free demos"-version. It has a different taste 
than the original, and is quite enjoyable. Listen to the song and then try to play it. You
will hear that Andrew is strumming upwards instead of downward.The song is in this 
format: Verse (1); Chorus (1); Verse(2); Chorus (2). The "1's" and "2's" symbolize that
they are played differently.

Tuning: Standard

Verse (1):

    D  G  B  A

e|---------------------------------------------------------------------------|
B|---------------------------------------------------------------------------|
G|----(0)--------------------------------------------------------------------|
D|--4--4--4--2---------------------------------------------------------------|
A|--5--5--5--0---------------------------------------------------------------|
E|--5--3--7--5---------------------------------------------------------------|

Chorus (1):

    G        A

e|---------------------------------------------------------------------------|
B|---------------------------------------------------------------------------|
G|---------------------------------------------------------------------------|
D|--5--4--0------------------------------------------------------------------|
A|--5--5--5--7---------------------------------------------------------------|
E|--3--3--3--5---------------------------------------------------------------|

Verse (2):

    D  G  B  A

e|---------------------------------------------------------------------------|
B|---------------------------------------------------------------------------|
G|----(0)-7--6---------------------------------------------------------------|
D|--4--4--4--x---------------------------------------------------------------|
A|--5--5--x--7---------------------------------------------------------------|
E|--5--3--7--5---------------------------------------------------------------|

Chorus (2):

    G  A

e|---------------------------------------------------------------------------|
B|---------------------------------------------------------------------------|
G|---------------------------------------------------------------------------|
D|--5-(0)---------------------------------------------------------------------|
A|--5--7---------------------------------------------------------------------|
E|--3--5---------------------------------------------------------------------|



Please send me any mistakes that you see, or just leave a comment. :)
AmAnSet////
Tap to rate this tab
# A B C D E F G H I J K L M N O P Q R S T U V W X Y Z