Song name
# A B C D E F G H I J K L M N O P Q R S T U V W X Y Z

The American Analog Set - Shes Half tab

-------------------------------------------------------------------------------
			     SHE'S HALF - American Analog Set
-------------------------------------------------------------------------------
Tabbed by: abuckner28
Band URL: amanset.com

This is a super easy yet super beautiful song by American Analog Set. Tabbed from the 
on the album "Set Free."

Tuning: Standard

  Whole Song:
e|--------------------------|
B|--------------------------|
G|----------------0------0--|
D|--0------0------2------0--|
A|--2------0------3------3--|
E|--3------3----------------|
Tap to rate this tab
# A B C D E F G H I J K L M N O P Q R S T U V W X Y Z