Song name
# A B C D E F G H I J K L M N O P Q R S T U V W X Y Z

The American Analog Set - Play Hurt tab

-------------------------------------------------------------------------------
			     PLAY HURT - American Analog Set
-------------------------------------------------------------------------------
Tabbed by: abuckner28


Tuning: Standard

     
      E    E        B      A
e|------------------------------|
B|------------------------------|
G|----11---11-------44-----22---|
D|----22---22-------44-----22---|
A|----22---22-------22-----00---|
E|----00---00-------xx-----xx---|

    Little transition thing
     F#m    A     E
e|---------------------|
B|---------------------|
G|----2-----2-----11---|
D|----4-----2-----22---|
A|----4-----0-----22---|
E|----2-----x-----00---|

Tap to rate this tab
# A B C D E F G H I J K L M N O P Q R S T U V W X Y Z