Song name
# A B C D E F G H I J K L M N O P Q R S T U V W X Y Z

The American Analog Set - Come Home Baby Julie Come Home tab

Come Home Baby Julie, Come Home
The American Analog Set

Tuning: standard (Eadgbe)

e|--------------------------------------------------------------------------------|
B|--------------------------------------------------------------------------------|
G|--------------------------------------------------------------------------------|
D|------7-----7-----7---------------0-----0-----0-------------0-----0-----0-------|
A|--0-----0-----0-----0---0-----9-----9-----9-----9-------5-----5-----5-----5-----|
E|5---5-----5-----5-----5----/7---7-----7-----7-----7--\3---3-----3-----3-----3---|

e|-----------------------------|
B|-----------------------------|
G|-----------------------------|
D|-------2---------------0-----|
A|---2-----2---2-----5-----5---|
E|\0---0-----0----/3---3-----3-|  Repeat through whole song.



An easy song that is beautiful.
AmAnSet////

 \  slide down
 /  slide up
===============================================================================
Tap to rate this tab
# A B C D E F G H I J K L M N O P Q R S T U V W X Y Z