Song name
# A B C D E F G H I J K L M N O P Q R S T U V W X Y Z

The American Analog Set - Baby Julie Come Home tab

----------------------------------------------------------------------------

       Baby Julie Come Home - The American Analog Set
----------------------------------------------------------------------------

Tabbed by: Cale
Email: super_happy_smile_man@hotmail.com

This was taken from watching Andrew Kenny playing live.

Tuning: Standard

Intro:

e|---------------------------------------------------------------------------|
B|---------------------------------------------------------------------------|
G|---------------------------------------------------------------------------|
D|-----7------------9-----------5------------2-------5-----------------------|
A|-------7-(x2)-------9-(x2)------5-(x2)-------2-------5---------------------|
E|-5-5----------7-7---------3-3----------0-0-----3-3-------------------------|

Then throughout the rest of the song.

(0:33)

e|---------------------------------------------------------------------------|
B|---------------------------------------------------------------------------|
G|---------------------------------------------------------------------------|
D|-77777777/99999999\55555555\22222/55555------------------------------------|
A|-77777777/99999999\55555555\22222/55555------------------------------------|
E|-55555555/77777777\33333333p00000h33333------------------------------------|

Bass:

Intro:

(1:05)

G|---------------------------------------------------------------------------|
D|---------------------------------------------------------------------------|
A|---------9-9-9-9-----------------------------------------------------------|
E|-\5-5-5-5---------3-3-3-3-0-0-3-3------------------------------------------|

(2:07)

G|---------------------------------------------------------------------------|
D|---------------------------------------------------------------------------|
A|--7-7---9-9---5-5\-2-2/-5-5------------------------------------------------|
E|-5-5-5/7-7-7\3-3-p0-0-h3-3-------------------------------------------------|

p - Pull Off
h - Hammer On
Tap to rate this tab
 
# A B C D E F G H I J K L M N O P Q R S T U V W X Y Z