Song name
# A B C D E F G H I J K L M N O P Q R S T U V W X Y Z

The American Analog Set - Fuck This Im Leaving tab

Fuck This... I'm Leaving
The American Analog Set

Tuning: Standard

Main Riff:
e|------------------------------------------------------------------------------|
B|------------------------------------------------------------------------------|
G|-----0------------------------------------------------------------------------|
D|---4---4-0-0----2-0-----0---2--0-----0---2--0---------------------------------|
A|---5------------3-----------3------------3-----3/5----------------------------|
E|---5------------3---3/5-----3----3/5-----3-----3/5----------------------------|

Main Riff Variation #1:
e|-----------------------------------------------------------------------------|
B|-----------------------------------------------------------------------------|
G|-----0---------2-0---------2-0-----------------------------------------------|
D|---4--4-0-0---------4----------4-----2--0------------------------------------|
A|---5-----------3------5----3-----5---3-----3/5-------------------------------|
E|---5-----------3-----------3---------3-----3/5-------------------------------|

Main Riff Variation #2:
e|-----------------------------------------------------------------------------|
B|---------------1--0------0---1--0--------------------------------------------|
G|-----0---------0--0--0-2-2---0--0--2-2-0-------------------------------------|
D|---4--4-0-0----2--2----------2--2----------2--0------------------------------|
A|---5-----------3-------------3-------------3----3/5--------------------------|
E|---5-----------3-------------3-------------3----3/5--------------------------|

Chorus:
e|------------------------------------------------------------------------------|
B|------------------------------------------------------------------------------|
G|-------------------------------7----------------------------------------------|
D|----4-5-7-9-10-12-12-12-12-----4----------------------------------------------|
A|-------------------------------5----------------------------------------------|
E|-------------------------------5----------------------------------------------|
                                 ^ strum this (obviously)

Chorus Variation:
e|-----------------------------------------------------------------------------|
B|-----------------------------------------------------------------------------|
G|-----------------------------7-----------------------------------------------|
D|----4-5-7-9-10-12-5--5-5-5---4-----------------------------------------------|
A|-----------------------------5-----------------------------------------------|
E|-----------------------------5-----------------------------------------------|

During the chorus, you might want to slide between notes sometimes, because that's what 
sounds like. Anyway, listen to the song, and figure out where the different variations fit
in.
AmAnSet////
Tap to rate this tab
# A B C D E F G H I J K L M N O P Q R S T U V W X Y Z