Song name
# A B C D E F G H I J K L M N O P Q R S T U V W X Y Z

The Amity Affliction - I Heart Throsby tab

Hi this is my first tab so if anyone would like to make
suggestions or knows the proper tab
send a message at blakeohlback@yahoo.com.au

This song is in Drop C# (C#,G#,C#,F#,A#,D#)

Guitar 1

D#|---------------------------------------------------------------------|
A#|---------------------------------------------------------------------|
F#|---------------------------------------------------------------------|
C#|---2-2-2-------2-2-2---------2-2-2-2---------------------------------|
G#|---2-2-2-------2-2-2---------2-2-2-2---------------------------------|
C#|---2-2-2-------2-2-2---------2-2-2-2---------------------------------|
     PM-----------------------------------------------------------------|

Guitar 2

D#|----------------------------------------------------------------------|
A#|-----8----------------------------------------------------------------|
F#|-----11---------------------------------------------------------------|
C#|----------------------------------------------------------------------|
G#|----------------------------------------------------------------------|
C#|----------------------------------------------------------------------|


(Repeat 8)
        11


These are the chords for pretty much the rest of the song

D#|--------------------------------------------------------------------|
A#|--------------------------------------------------------------------|
F#|--------------------------------------------------------------------|
C#|---2----12-----12------2--------------------------4---------12--12--|
G#|---2-----9-----10------2------5p0-4p0-5p0-7p0-5p0---5-4------9--10--|
C#|---2-----9-----10------2-------------------------------------9--10--|


D#|-------------------------------------------------|
A#|------------8-7----------------------1-0---------|
F#|-------------------------------------------------|
C#|-----2---------------------------9---------------|
G#|-----2---------------------------9---------------|
C#|-----2---------------------------9---------------|

D#|-----------------------------------------------------------|
A#|-----------------------------------------------------------|
F#|-----------------------------------------------------------|
C#|---2--2--2--------9--9--9---------------10--10--10---------|
G#|---2--2--2--------9--9--9---------------10--10--10---------|
C#|---2--2--2--------9--9--9---------------10--10--10---------|
     pm pm          pm pm                  pm  pm

Guitar 1

D#|--10p0--------7p0--8p0--------|
A#|--------10p0------------------|
F#|------------------------------|
C#|------------------------------|
G#|------------------------------|
C#|------------------------------|

Guitar 2

D#|---------------------------------------|
A#|--5p0--------1p0--3p0------------------|
F#|-------5p0-----------------------------|
C#|---------------------------------------|
G#|---------------------------------------|
C#|---------------------------------------|

D#|--------------------------------|
A#|--------------------------------|
F#|--------------------------------|
C#|--2--2----2--2---2--2----2--2---|
G#|--2--2----2--2---2--2----2--2---|
C#|--2--2----2--2---2--2----2--2---|

    pm-------------------------


(This isnt 100% correct but it still sounds good for the soft part)


D#|-----0----------------------------------------|
A#|-----5----------------------------------------|
F#|-----7----------------------------------------|
C#|----------------------------------------------|
G#|----------------------------------------------|
C#|----------------------------------------------|

D#|------------------------------------------------------------------|
A#|------------------------------------------------------------------|
F#|------------------------------------------------------------------|
C#|---12---10--10---10-10-10-10-10-10----10s12-12-12-12-12-12-12-12--|
G#|---12---10--10---10-10-10-10-10-10----10s12-12-12-12-12-12-12-12--|
C#|---12---10--10---10-10-10-10-10-10----10s12-12-12-12-12-12-12-12--|


D#|-------------------------------------------------|
A#|-------------------------------------------------|
F#|-------------------------------------------------|
C#|---12s14-14-14-14-14-14-14-14-14-14s12-12-12-12--|
G#|---12s14-14-14-14-14-14-14-14-14-14s12-12-12-12--|
C#|---12s14-14-14-14-14-14-14-14-14-14s12-12-12-12--|


D#|--------------------------------------------------------------------------|
A#|--------------------------------------------------------------------------|
F#|--------------------------------------------------------------------------|
C#|-10-10--10-10-10-10-10-10-10-10--7-7--7-7-7-7-7-7-7-7--2-2--2-2--2-2--2-2-|
G#|-10-10--10-10-10-10-10-10-10-10--7-7--7-7-7-7-7-7-7-7--2-2--2-2--2-2--2-2-|
C#|-10-10--10-10-10-10-10-10-10-10--7-7--7-7-7-7-7-7-7-7--2-2--2-2--2-2--2-2-|
Tap to rate this tab
# A B C D E F G H I J K L M N O P Q R S T U V W X Y Z