Song name
# A B C D E F G H I J K L M N O P Q R S T U V W X Y Z

The Amity Affliction - Snitches Get Stitches tab

-------------------------------------------------------------------------------
			     Snitches Get Stitches - The Amity Affliction
-------------------------------------------------------------------------------
Tabbed by: Mitchimus21
Email:Mitchimus01@hotmail.com

Tuning: Drop C down half a step(C#,G#,C#,F#,A#,D#)

This is my First tab hope you find it easy enough if anyone has any suggestions with any 
of the tab just email me thanks. Enjoy
(long Live Amity)

Intro Repeat twice
|---------------------------------------------------------------------------|
|---------------------------------------------------------------------------|
|---------------------------------------------------------------------------|
|9---------4--------0-------------------------------------------------------|
|9--x7-----4---x7---0--x14--------------------------------------------------|
|9---------4--------0-------------------------------------------------------|

Verse: Lead Guitar, Clean
|---------------------------------------------------------------------------|
|----------10---------------------------------10-------------10-10-9h10p9---|
|-9---13--------66--6h9-6-------------9---13------66--6h9-6-----------------|
|---------------------------99--77------------------------------------------|
|---------------------------------------------------------------------------|
|---------------------------------------------------------------------------|

|---------------------------------------------------------------------------|
|---------------------------------------------------------------------------|
|---11----Repeat-again-until--Chords--come--in------------------------------|
|---------------------------------------------------------------------------|
|---------------------------------------------------------------------------|
|---------------------------------------------------------------------------|

Pre-Chorus 0:41
|---------------------------------------------------------------------------|
|---------------------------------------------------------------------------|
|---------------------------------------------------------------------------|
|-4--------6------7-------0------7-----6------------------------------------|
|-4--x7----6-x4---7-x4----0--x7--7-x4--6-x4---------------------------------|
|-4--------6------7-------0------7-----6------------------------------------|


Chorus- Loose lips Sink ships
|---------------------------------------------------------------------------|
|---------------------------------------------------------------------------|
|---------------------------------------------------------------------------|
|-4------7-----0-------2----------------------------------------------------|
|-4-x7---7-x7--0--x7---2-x7-------------------------------------------------|
|-4------7-----0-------2----------------------------------------------------|

Bridge- Starts at 1:12  you dont have to palm mute the 444 its not on the cd but they do 
live sometimes
|---------------------------------------------------------------------------|
|---------------------------------------------------------------------------|
|---------------------------------------------------------------------------|
|-4-4------4-4------0---2----------4----------------------------------------|
|-4-4------4-4------0---2-----x2---4--on-second-part-end--------------------|
|-4-4---4444-4---/--0---2----------4----------------------------------------|

Repeat Verse
|---------------------------------------------------------------------------|
|----------10---------------------------------10-------------10-10-9h10p9---|
|-9---13--------66--6h9-6-------------9---13------66--6h9-6-----------------|
|---------------------------99--77------------------------------------------|
|---------------------------------------------------------------------------|
|---------------------------------------------------------------------------|


next bit starts at 1:54
|---------------------------------------------------------------------------|
|-----------------------10p9--------------------------------10p9------------|
|--6-66-6-66--9-99-11--------9-9h11-----6-66-6-66--9-99-11-------99---------|
|---------------------------------------------------------------------------|
|---------------------------------------------------------------------------|
|---------------------------------------------------------------------------|

Guitar 1 Keeps playing
|---------------------------------------------------------------------------|
|---------------------------------------------------------------------------|
|--6-66-6-66--9-99-11-------------------------------------------------------|
|---------------------------------------------------------------------------|
|---------------------------------------------------------------------------|
|---------------------------------------------------------------------------|

|---------------------------------------------------------------------------|
|--10p9---------------------------------------------------------------------|
|-------9-9h11p9------------------------------------------------------------|
|---------------------------------------------------------------------------|
|---------------------------------------------------------------------------|
|---------------------------------------------------------------------------|

Chorus- again 2:14
|---------------------------------------------------------------------------|
|---------------------------------------------------------------------------|
|---------------------------------------------------------------------------|
|-4------7-----0-------2----------------------------------------------------|
|-4-x7---7-x7--0--x7---2-x7-------------------------------------------------|
|-4------7-----0-------2----------------------------------------------------|

2:34 palm mute the single bottom string notes
|---------------------------------------------------------------------------|
|---------------------------------------------------------------------------|
|---------------------------------------------------------------------------|
|-44------77------0---------------------------------------------------------|
|-44------77------0---------------------------------------------------------|
|-44-444--77-777--0---------------------------------------------------------|
da-da-ddd-da-da

Guitar 1 starts at 2:37 - Guitar 2 Joins at 2:55
|---------------------------------------------------------------------------|
|--------------10---10----12-12--9-9h10-------------------------------------|
|-9h11p11--------h9----h9---------------------------------------------------|
|---------------------------------------------------------------------------|
|---------------------------------------------------------------------------|
|---------------------------------------------------------------------------|



************************************

| /   slide up
| \   slide down
| h   hammer-on
| p   pull-off
| ~   vibrato
| +   harmonic
| x   Mute note
| b   Bend
| pb  Pre-bend
| br  Bend release
| pbr Pre-bend release
| brb Bend release bend

************************************
Tap to rate this tab
 
# A B C D E F G H I J K L M N O P Q R S T U V W X Y Z