Song name
# A B C D E F G H I J K L M N O P Q R S T U V W X Y Z

The Amity Affliction - I Hate Hartley tab

Band: The Amity Affliction
Song: I Hate Hartley
Album: Youngbloods

Tuning: Drop C# [C#,G#,C#,F#,A#,D#]

Why is it that there's no Amity tabs anywhere? I thought they were somewhat
well known. Ah well.
Great song, fun to play along with.


*Synth intro*
0:00 - 0:15

Intro
0:16 - 0:45

D#|---------------------------------------------------------|
A#|---------------------------------------------------------|
F#|---------------------------------------------------------|
C#|---------------------------------------------------------|
G#|-000-0~-00----000---00000000-000-0~-00----000---00000000-|
C#|-000-0~-00-00-000---00000000-000-0~-00-00-000---00000000-|
PM  ...    ..    ...   ........ ...    ..    ...   ........

continued...

D#|---------------------------------------------------------|
A#|----------------------------------------------------6-6~-|
F#|----------------------------------------------------9-9~-|
C#|---------------------------------------------------------|
G#|-0~-1~-0~-4~-0~-----00000000-000-0~-00----000-1-0-1------|
C#|-0~-1~-0~-4~-0~-1b~-00000000-000-0~-00-00-000-1-0-1------|
PM                     ........ ...    ..    ...

continued...

D#|---------------------------------------------------------|
A#|---------------------------------------------------------|
F#|---------------------------------------------------------|
C#|---------------------------------------------------------|
G#|-000-0~-00----000---00000000-000-0~-00----000---00000000-|
C#|-000-0~-00-00-000---00000000-000-0~-00-00-000---00000000-|
PM  ...    ..    ...   ........ ...    ..    ...   ........

continued...

D#|---------------------------------------------------------|
A#|---------------------------------------------------------|
F#|---------------------------------------------------------|
C#|---------------------------------------------------------|
G#|-0~-1~-0~-4~-0~-----00000000-000-0~-00----000-0000000000-|
C#|-0~-1~-0~-4~-0~-1b~-00000000-000-0~-00-00-000-0000000000-|
PM                     ........ ...    ..    ... ..........


Verse A x2
0:46 - 1:00

D#|-------------------------------------|
A#|-------------------------------------|
F#|-------------------------------------|
C#|-7777777777777777-33333333-0000-5555-|
G#|-7777777777777777-33333333-0000-5555-|
C#|-7777777777777777-33333333-0000-5555-|


Verse B x2
1:00 - 1:13

D#|-------------------------------------|
A#|-------------------------------------|
F#|-------------------------------------|
C#|----3~~~~----0~~~~-77777777-55555555-|
G#|-3333~~~~-0000~~~~-77777777-55555555-|
C#|-3333~~~~-0000~~~~-77777777-55555555-|
PM  ...      ...


Pre-Chorus
1:13 - 1:20

D#|-/8-7-------8-7------------|
A#|------8-8~~-----8-8~~~~~~~-|
F#|---------------------------|
C#|---------------------------|
G#|---------------------------|
C#|---------------------------|


Chorus A x2
1:22 - 1:35

GUITAR ONE

D#|------------------------------------|
A#|------------------------------------|
F#|------------------------------------|
C#|-33--3~~-00---------77--7~~-55--5~~-|
G#|-33-33~~-00-0-/10~~-77-77~~-55-55~~-|
C#|-33-33~~-00-0-/10~~-77-77~~-55-55~~-|
PM     .       .         .       .

GUITAR TWO

D#|-/8-7-------8-7------------------|
A#|------8-8~~-----8-/10~-13~~-12~~-|
F#|---------------------------------|
C#|---------------------------------|
G#|---------------------------------|
C#|---------------------------------|


Chorus B x2
1:36 - 1:51

GUITAR ONE

D#|-------------------------------------------|
A#|-------------------------------------------|
F#|-------------------------------------------|
C#|-33333333-0000-/10101010-77777777-55555555-|
G#|-33333333-0000-/10101010-77777777-55555555-|
C#|-33333333-0000-/10101010-77777777-55555555-|

GUITAR TWO

D#|----------------------------------------|
A#|-10~~~~~-/12~~~~~~-10~~~~-/13~~~-12~~~~-|
F#|----------------------------------------|
C#|----------------------------------------|
G#|----------------------------------------|
C#|----------------------------------------|


Post-Chorus
1:51 - 1:59

D#|-------------------------------|
A#|-------------------------------|
F#|-------------------------------|
C#|-3~~~~~~~~~~~~~~~~~~~~~~~~~~~~-|
G#|-3~~~~~~~~~~~~~~~~~~~~~~~~~~~~-|
C#|-3~~~~~~~~~~~~~~~~~~~~~~~~~~~~-|

GUITAR TWO

D#|-------------------------------|
A#|-10~~~~~-/8~~~~-6~~~~~-6\5~~~~-|
F#|-------------------------------|
C#|-------------------------------|
G#|-------------------------------|
C#|-------------------------------|


*I think this little build-up thing here is just synth*


Bridge A x2
2:05 - 2:18

D#|------------------------------------------------------------------|
A#|-----11\-------------11\-------------11\-------------11\----------|
F#|-----14\-------------14\-------------14\-------------14\----------|
C#|------------------------------------------------------------------|
G#|-000-----00-00-0-000-----00-00-0-000-----00-00-0-000-----00000000-|
C#|-000-----00-00-0-000-----00-00-0-000-----00-00-0-000-----00000000-|
PM  ...        ..   ...        ..   ...        ..   ...     ........


Bridge B x2
2:19 - 2:35

D#|-----------------------------------------------------------|
A#|-----------------------------------------------------------|
F#|-----------------------------------------------------------|
C#|-----------------------------------------------------------|
G#|-0-0~-0-00-00--0-0~-0-00-00--0-0~-0-00-00--0-0~-0-00000000-|
C#|-0-0~-0-00-00--0-0~-0-00-00--0-0~-0-00-00--0-0~-0-00000000-|
PM                                                   ........


Bridge C
2:36 - 3:03

GUITAR ONE

D#|-------------------------------------------------------------------|
A#|-------------------------------------------------------------------|
F#|-------------------------------------------------------------------|
C#|-0~~~~~~~~~~~~~~~~~~~~~~~~~~~~~~~~~~~~~~~~~~~~~~~~~~~~~~~~~~~~~~~~-|
G#|-0~~~~~~~~~~~~~~~~~~~~~~~~~~~~~~~~~~~~~~~~~~~~~~~~~~~~~~~~~~~~~~~~-|
C#|-0~~~~~~~~~~~~~~~~~~~~~~~~~~~~~~~~~~~~~~~~~~~~~~~~~~~~~~~~~~~~~~~~-|

GUITAR TWO x2

D#|-/8-7-------8-7--------------------/8-7-------8-7------------------|
A#|------8-8~~-----8-/10~-17b~~-15~~------8-8~~-----8-/10~-17b~~-15~~-|
F#|-------------------------------------------------------------------|
C#|-------------------------------------------------------------------|
G#|-------------------------------------------------------------------|
C#|-------------------------------------------------------------------|


Chorus A x2
3:03 - 3:16

GUITAR ONE

D#|------------------------------------|
A#|------------------------------------|
F#|------------------------------------|
C#|-33--3~~-00---------77--7~~-55--5~~-|
G#|-33-33~~-00-0-/10~~-77-77~~-55-55~~-|
C#|-33-33~~-00-0-/10~~-77-77~~-55-55~~-|
PM     .       .         .       .

GUITAR TWO

D#|-/8-7-------8-7------------------|
A#|------8-8~~-----8-/10~-13~~-12~~-|
F#|---------------------------------|
C#|---------------------------------|
G#|---------------------------------|
C#|---------------------------------|


Chorus B x4
3:16 - 3:47

GUITAR ONE

D#|-------------------------------------------|
A#|-------------------------------------------|
F#|-------------------------------------------|
C#|-33333333-0000-/10101010-77777777-55555555-|
G#|-33333333-0000-/10101010-77777777-55555555-|
C#|-33333333-0000-/10101010-77777777-55555555-|

GUITAR TWO

D#|----------------------------------------|
A#|-10~~~~~-/12~~~~~~-10~~~~-/13~~~-12~~~~-|
F#|----------------------------------------|
C#|----------------------------------------|
G#|----------------------------------------|
C#|----------------------------------------|


Finish

D#|---------------------|
A#|---------------------|
F#|---------------------|
C#|-33--3~~~~~~~~~~~~~~-|
G#|-33-33~~~~~~~~~~~~~~-|
C#|-33-33~~~~~~~~~~~~~~-|
PM     .
Tap to rate this tab
 
# A B C D E F G H I J K L M N O P Q R S T U V W X Y Z