Song name
# A B C D E F G H I J K L M N O P Q R S T U V W X Y Z

The Amity Affliction - Prometheus tab

-------------------------------------------------------------------------------
			     PROMETHEUS - The Amity Afffliction
-------------------------------------------------------------------------------
Tabbed by: RIPsteggy

Tuning: Standard

Info: First tab, and I know it's far from perfect but at least it sounds slightly similar.

e|----------------------------------------------------------|
B|-----2----------------------------------------------------|
G|-------3-----------3------4-3h4p3----4-3h4p3--------------|
D|-----------------4----------------4----------4------------|
A|-2-2------------------------------------------------------|
E|-------------2-2------2-4---------------------------------|

e|---------------------------2------------------------------|
B|-----2----------------------------------------------------|
G|-------3-----------3---------3h4--------------------------|
D|-----------------4----------------------------------------|
A|-2-2------------------------------------------------------|
E|-------------2-2------2-4---------------------------------|

e|-----2-------------------|
B|-------------------------| x7
G|-4-4---3h4p3-----3-3h4---|
D|-------------4-4---------|
A|-------------------------|
E|-------------------------|

- last time -

e|---2---------------------|
B|-------------------------|
G|-4---3h4-----------------|
D|-------------------------|
A|-------------------------|
E|-------------------------|


************************************

| h   hammer-on
| p   pull-off

************************************
Tap to rate this tab
 
# A B C D E F G H I J K L M N O P Q R S T U V W X Y Z