Song name
# A B C D E F G H I J K L M N O P Q R S T U V W X Y Z

The Amity Affliction - Geof Sux 666 tab

-------------------------------------------------------------------------------
                   GEOF SUX 666 - The Amity Affliction
-------------------------------------------------------------------------------
Tabbed by: Sola

There just aren't enough Amity tabs out there, so I thought I'd make some.
They sound about right to me, but it's all by ear.}
First tab, by the way.

Tuning: Drop C


High intro (0:00)
D||--------------12---------13-----------12----------|-----------8----------8--------8--------|
A||-------8----------8----------8------------8-------|-----6--------6----------6--------6-----|
F||--/10-----10---------10---------10-----------10s--|--7-----7--------7----------7--------7--|
C||--------------------------------------------------|----------------------------------------|
G||--------------------------------------------------|----------------------------------------|
C||--------------------------------------------------|----------------------------------------|

Verse Background, hold these (0:15)
D||-----------------------------|
A||-----------------------------|
F||-----------------------------| Repeat x 4
C||--0-12-10---7-7-8------------|
G||--0-12-10---7-7-8------------|
C||--0-12-10---7-7-8------------|

Quieter background guitar, need to listen for it (0:45)
D||---------------------------|
A||---------------------------|
F||----14------12-------------|
C||--0-------0------5------8--|
G||--0-12----0-10---5(x15)-8--|
C||--0-------0------5------8--|

Chuga chug chug (1:00)
D||-----------------------------------|------------|
A||-----------------------------------|------------|
F||-----------------------------------|------------|
C||--0-0--0-------0-0--0-----0--0--0--|--5------3--|
G||--0-0--0-------0-0--0-----0--0--0--|--5(x15)-3--|
C||--0-0--0-------0-0--0-----0--0--0--|--5------3--|


D||------------------------|------------|
A||------------------------|------------|
F||------------------------|--------20--|
C||--0-0--0-------0-0--0h--|--8--5--19--|
G||--0-0--0-------0-0--0h--|--8--5--17--|
C||--0-0--0-------0-0--0h--|--8--5------|

************************************

| /   slide up
| \   slide down
| h   hammer-on
| p   pull-off
| ~   vibrato
| +   harmonic
| x   Mute note
| b   Bend
| pb  Pre-bend
| br  Bend release
| pbr Pre-bend release
| brb Bend release bend

************************************
Tap to rate this tab
# A B C D E F G H I J K L M N O P Q R S T U V W X Y Z