Song name
# A B C D E F G H I J K L M N O P Q R S T U V W X Y Z

The Amity Affliction - Pabst Blue Ribbon On Ice tab

This is The Amity Affliction's Pabst Blue Ribbon On Ice from Chasing Ghosts. It's an 
amazingly beautiful song by an amazing band. These tabs were tabbed by ear by a friend.

Tuning Drop C (CGCfad)

Intro (chorus as well)
C|--3-3-----5-----7--7-7---5---3-|x2
G|--3-3-----5-----7--7-7---5---3-|
C|--3-3-----5-----7--7-7---5---3-|
f|-------------------------------|
a|-------------------------------|
d|-------------------------------|
let chords ring

Piano intro (chorus as well)
C|-------------------------------------------------------------------------|
G|-------------------------------------------------------------------------|
C|-5-7----------------------------------------------------9-7---------7-5--|
f|--------9-7-9---7-9---9-7-9-7-5-----7-5-----7-5-----7-5---------9-7------|
a|------7-------------7-------------5-----5---------5-----------8----------|
d|-------------------------------------------------------------------------|

C|-------------------------|
G|-------------------------|
C|----------------------7--|
f|---9-7-9-7--5-5-5-5-7----|
a|-8-----------------------|
d|-------------------------|


Verse 1:
C|--0-0-0-0-0-----0-0--0-0----0-0--0-0-|x4
G|-------------------------------------|
C|-------------------------------------|
f|-------------------------------------|
a|-------------------------------------|
d|-------------------------------------|
P.m....................................

C|--3-3-3-3-3----3-3--3-3----3-3--3-3----5-5-5-5-5----7-7--7-7---7-7--7-7-|x2
G|------------------------------------------------------------------------|
C|------------------------------------------------------------------------|
f|------------------------------------------------------------------------|
a|------------------------------------------------------------------------|
d|------------------------------------------------------------------------|
P.m.......................................................................

C|-7-----10-------3-3-3-3-3-3-3-3-3-3-3-3-3-3-3-3-3-3-3-3-3-3-3-3-|
G|-7-----10-------3-3-3-3-3-3-3-3---------------------------------|
C|-7-----10-------3-3-3-3-3-3-3-3---------------------------------|
f|----------------------------------------------------------------|
a|----------------------------------------------------------------|
d|----------------------------------------------------------------|
Let ring...........|P.m...........................................

C|-7-7-7-7-7-7-7-7-10-10-10-10-10-10-10-10-3-3-3-3-3-3-3-3-3-3-3-3-3-3-3-3-|
G|-7-7-7-7-7-7-7-7-10-10-10-10-10-10-10-10-3-3-3-3-3-3-3-3-3-3-3-3-3-3-3-3-|
C|-7-7-7-7-7-7-7-7-10-10-10-10-10-10-10-10-3-3-3-3-3-3-3-3-3-3-3-3-3-3-3-3-|
f|-------------------------------------------------------------------------|
a|-------------------------------------------------------------------------|
d|-------------------------------------------------------------------------|

C|-7-7-7-7-7-7-7-7-10-10-10-10-5-5-5-5-3-3-3-3-3-3-3-3-|     Play above bit
G|-7-7-7-7-7-7-7-7-10-10-10-10-5-5-5-5-3-3-3-3-3-3-3-3-|     and this one x2
C|-7-7-7-7-7-7-7-7-10-10-10-10-5-5-5-5-3-3-3-3-3-3-3-3-|
f|-----------------------------------------------------|
a|-----------------------------------------------------|
d|-----------------------------------------------------|

Chorus (Intro x2)


Verse 2:

C|-3-----10-----5-5-5-5-5-5-5-5-5-5-5-5-5-5-5-5-5-5-5-5-5-5-5-5-5-|
G|-3-----10-----5-5-5-5-5-5-5-5-5---------------------------------|
C|-3-----10-----5-5-5-5-5-5-5-5-5---------------------------------|
f|----------------------------------------------------------------|
a|----------------------------------------------------------------|
d|----------------------------------------------------------------|
Let ring.........|P.m....................................

C|-3-3-3-3-3-3-3-3-7-7-7-7-7-7-7-7-5-5-5-5-5-5-5-5-5-5-5-5-5-5-5-5-|x2
G|-3-3-3-3-3-3-3-3-7-7-7-7-7-7-7-7-5-5-5-5-5-5-5-5-5-5-5-5-5-5-5-5-|
C|-3-3-3-3-3-3-3-3-7-7-7-7-7-7-7-7-5-5-5-5-5-5-5-5-5-5-5-5-5-5-5-5-|
f|-----------------------------------------------------------------|
a|-----------------------------------------------------------------|
d|-----------------------------------------------------------------|

C|-3-3-3-3-3----7-7--7-7----7-7--7-7----5-5-5-5-5----5-5--5-5----5-5--5-5-|x2
G|------------------------------------------------------------------------|
C|------------------------------------------------------------------------|
f|------------------------------------------------------------------------|
a|------------------------------------------------------------------------|
d|------------------------------------------------------------------------|
P.m.......................................................................

C|-0-0-0-0-0----0-0--0-0----0-0--0-0-|x3 -0-0-0-0-0----0-0--0-0----0-0--0-0-|
G|-0-0-0-0-0----0-0--0-0----0-0--0-0-|   -0-0-0-0-0----0-0--0-0----0-0--0-0-|
C|-0-0-0-0-0----0-0--0-0----0-0--0-0-|   -0-0-0-0-0----0-0--0-0----0-0--0-0-|
f|-----------------------------------|   -----------------------------------|
a|-----------------------------------|   -----------------------------------|
d|-----------------------------------|   -----------------------------------|
P.m..................................     ..................................


Chorus (Intro x2)


Bridge (clean for arpeggios):

C|----------------------------------|x4
G|----------------------------------|
C|-7--------7-------7-------5-------|
f|---5---5----5---5---5---5---5---5-|
a|-----8--------8-------8-------8---|
d|----------------------------------|

C|-3-3-3-3-3----7-7--7-7----7-7--7-7----5-5-5-5-5----5-5--5-5----5-5--5-5-|x2
G|------------------------------------------------------------------------|
C|------------------------------------------------------------------------|
f|------------------------------------------------------------------------|
a|------------------------------------------------------------------------|
d|------------------------------------------------------------------------|
P.m.......................................................................

C|-3-3-3-3-3-3-3-3-7-7-7-7-7-7-7-7-5-5-5-5-5-5-5-5-5-5-5-5-5-5-5-5-|x2
G|-3-3-3-3-3-3-3-3-7-7-7-7-7-7-7-7-5-5-5-5-5-5-5-5-5-5-5-5-5-5-5-5-|
C|-3-3-3-3-3-3-3-3-7-7-7-7-7-7-7-7-5-5-5-5-5-5-5-5-5-5-5-5-5-5-5-5-|
f|-----------------------------------------------------------------|
a|-----------------------------------------------------------------|
d|-----------------------------------------------------------------|

C|-5-5-5-5-5-5-5-5-5-5-5-5-5-5-5-5-|
G|-5-5-5-5-5-5-5-5-5-5-5-5-5-5-5-5-|
C|-5-5-5-5-5-5-5-5-5-5-5-5-5-5-5-5-|
f|---------------------------------|
a|---------------------------------|
d|---------------------------------|

Chorus (Intro x2)

Lead guitar parts

1:48-2:00
C|-----------------------------------------------------------------------|
G|-----------------------------------------------------------------------|
C|-7-7-7-7---7-7-----7-7----7-7---7-7---7-7------5-5-5-5---5-5-----5-5---|
f|---------5-----4\5------------5-----4------5-----------5-----4\5-----7-|
a|-----------------------8-----------------------------------------------|
d|-----------------------------------------------------------------------|
Pm........   . .     . .    . .   .  .   . .     . . . .   . .     . .

C|-----------------------|x2
G|-----------------------|
C|-5-5---5-5---5-5---5-5-|
f|-----5-----4-----5-----|
a|-----------------------|
d|-----------------------|


2:00-2:11
C|-------------------------------------------------------------------------|
G|-------------------------------------------------------------------------|
C|-------------------------------------------------------------------------|
f|-7--7--7--7--7--7--7--7--7--7--7--7--7--7--7--7--------------------------|
a|--6--6--6--6--6--6--6--6--5--5--5--5--5--5--5--5-6--6--6--6--6--6--6--6--|
d|--------------------------------------------------8--8--8--8--8--8--8--8-|

C|------------------------|
G|------------------------|
C|------------------------|
f|------------------------|
a|-6--6--6--6--6--6--6--6-|
d|--5--5--5--5--5--5--5--5|

Hopefully this is all correct. It sounds pretty good for me. Hope you enjoy. If you have 
any corrections, please email me at jacoblitchfield2@gmail.com.
Tap to rate this tab
# A B C D E F G H I J K L M N O P Q R S T U V W X Y Z