Song name
# A B C D E F G H I J K L M N O P Q R S T U V W X Y Z

The Amity Affliction - Pittsburgh tab

-------------------------------------------------------------------------------
			     PITTSBURGH - The Amity Affliction
-------------------------------------------------------------------------------
Tabbed by: Viliqq
E-mail: V.Ikaheimonen@gmail.com

Tuning: Drop A#

There's a guitar cover by me using these tabs (some things added into the tabs) 
on my Youtube channel: Viliqq
The cover: https://www.youtube.com/watch?v=oc46VH7IfUE
This is my first tab ever so don't judge :D
Not 100% sure but i think it's close :)

*NOTE* Listen to the song! Rhythm patterns can be different from the tabs!

Rhythm part for the intro
C |---------------------------------------------------------------------------|
G |---------------------------------------------------------------------------|
D#|---------------------------------------------------------------------------|
A#|-7--7--3-----------10--10--9-----------2--2--3----------10--10--5----------|
F |-7--7--3-----------7---7---5-----------2--2--3----------10--10--5----------|
A#|-7--7--3-----------7---7---5-----------2--2--3----------10--10--5----------|

Lead Part for the intro
C |-24----17---------19--20--19----------24----17----------20--22--19---------|
G |----20-----------------------------------20--------------------------------|
D#|---------------------------------------------------------------------------|
A#|---------------------------------------------------------------------------|
F |---------------------------------------------------------------------------|
A#|---------------------------------------------------------------------------|

Verse
C |---------------------------------------------------------------------------|
G |---------------------------------------------------------------------------|
D#|---------------------------------------------------------------------------|
A#|---------------------------------------------------------------------------|
F |--3---------3--333------------------7---------7--777--5-5-5-5-5-5-5--------|
A#|--3--33-33--3--333--000-00-0-0-0-0--7--77-77--7--777--5-5-5-5-5-5-5--------|

C |---------------------------------------------------------------------------|
G |---------------------------------------------------------------------------|
D#|---------------------------------------------------------------------------|
A#|---------------------------------------------------------------------------|
F |--3---------3--333---------7-7-7-7-----------------------------------------|
A#|--3--33-33--3--333--000-00-7-7-7-7--55-5-5-5-555-5-555-55-55-5-5-5---------|

C |---------------------------------------------------------------------------|
G |---------------------------------------------------------------------------|
D#|---------------------------------------------------------------------------|
A#|---------------------------------------------------------------------------|
F |--3---------3--333------------------7---------7--777--5-5-5-5-5-5-5--------|
A#|--3--33-33--3--333--000-00-0-0-0-0--7--77-77--7--777--5-5-5-5-5-5-5--------|


C |-----------------------------------------------------------------15/17-----|
G |----------------------------------13-12--13-12--12---15/17-13\10-------13\-|
D#|---------------------------------------12-----12---------------------------|
A#|---------------------------------------------------------------------------|
F |-3---------3--333---------7-7-7-7------------------------------------------|
A#|-3--33-33--3--333--000-00-7-7-7-7------------------------------------------|

Chorus
C |---------------------------------------------------------------------------|
G |---------------------------------------------------------------------------|
D#|---------------------------------------------------------------------------|
A#|-3-3-3-3-3-3-3-3-3-3-3-3-3-3-3-7-7-7-7-7-7-7-7-7-7-7-2-2-2-2-2-2-2-2-2-2-2-|
F |-3-3-3-3-3-3-3-3-3-3-3-3-3-3-3-7-7-7-7-7-7-7-7-7-7-7-2-2-2-2-2-2-2-2-2-2-2-|
A#|-3-3-3-3-3-3-3-3-3-3-3-3-3-3-3-7-7-7-7-7-7-7-7-7-7-7-2-2-2-2-2-2-2-2-2-2-2-|

C |---------------------------------------------------------------------------|
G |---------------------------------------------------------------------------|
D#|---------------------------------------------------------------------------|
A#|-3-3-3-3-3-3-3-3-3-3-3-3-3-3-3-5-5-5-5-5-5-5-5-5-5-5-5-5-5-5-5-5-5-5-5-5-5-|
F |-3-3-3-3-3-3-3-3-3-3-3-3-3-3-3-5-5-5-5-5-5-5-5-5-5-5-5-5-5-5-5-5-5-5-5-5-5-|
A#|-3-3-3-3-3-3-3-3-3-3-3-3-3-3-3-5-5-5-5-5-5-5-5-5-5-5-5-5-5-5-5-5-5-5-5-5-5-|

Play all above twice in the same order and then after the second chorus play the intro 
once more and then off to the next part :)

Bridge
C |---------------------------------------------------------------------------|
G |---------------------------------------------------------------------------|
D#|---------------------------------------------------------------------------|
A#|-10-10-10-10-10-10-10-10-10-10-5-5-5-5-5-5-5-7-7-7-7-3-3-3-3-3-3-3-3-3-3-3-| 2X
F |-10-10-10-10-10-10-10-10-10-10-5-5-5-5-5-5-5-7-7-7-7-3-3-3-3-3-3-3-3-3-3-3-|
A#|-10-10-10-10-10-10-10-10-10-10-5-5-5-5-5-5-5-7-7-7-7-3-3-3-3-3-3-3-3-3-3-3-|

beautiful choir part

Outro Chorus
(I like to add little accents to these chords on the last chorus just make it
more epic :D)
C |---------------------------------------------------------------------------|
G |---------------------------------------------------------------------------|
D#|---------------------------------------------------------------------------|
A#|-7-7-7-7-7-7-7-7-7-7-7-7-7-7-7-10101010101010101010105-5-5-5-5-5-5-5-5-5-5-|
F |-3-3-3-3-3-3-3-3-3-3-3-3-3-3-3-7-7-7-7-7-7-7-7-7-7-7-2-2-2-2-2-2-2-2-2-2-2-|
A#|-3-3-3-3-3-3-3-3-3-3-3-3-3-3-3-7-7-7-7-7-7-7-7-7-7-7-2-2-2-2-2-2-2-2-2-2-2-|

C |---------------------------------------------------------------------------|
G |---------------------------------------------------------------------------|
D#|---------------------------------------------------------------------------|
A#|-7-7-7-7-7-7-7-7-7-7-7-7-7-7-7-9-9-9-9-9-9-9-9-9-9-9-9-9-9-9-9--5--7--3----|
F |-3-3-3-3-3-3-3-3-3-3-3-3-3-3-3-5-5-5-5-5-5-5-5-5-5-5-5-5-5-5-5--5--7--3----|
A#|-3-3-3-3-3-3-3-3-3-3-3-3-3-3-3-5-5-5-5-5-5-5-5-5-5-5-5-5-5-5-5--5--7--3----|



************************************

| /   slide up
| \   slide down
| h   hammer-on
| p   pull-off
| ~   vibrato
| +   harmonic
| x   Mute note
| b   Bend
| pb  Pre-bend
| br  Bend release
| pbr Pre-bend release
| brb Bend release bend

************************************
Tap to rate this tab
# A B C D E F G H I J K L M N O P Q R S T U V W X Y Z