Song name
# A B C D E F G H I J K L M N O P Q R S T U V W X Y Z

The Amity Affliction - Pittsburgh tab

I like this song that I have done it also on standard.

Intro = 

E|-------------------------------------------------------------------|
B|-------------------------------------------------------------------|
G|-------------------------------------------------------------------|
D|-3--3--6-----------3--3--8-----------5--5--6----------6--6--8------|
A|-3--3--4-----------3--3--6-----------3--3--4----------6--6--6------|
E|-1--1--4-----------1--1--6-----------3--3--4----------4--4--6------|

E|-20-----------------------------------20--------------------18-----|
B|-------18---------20--21--20----------------18----------21------20-|
G|----21-----------------------------------21------------------------|
D|-------------------------------------------------------------------|
A|-------------------------------------------------------------------|
E|-------------------------------------------------------------------|

Verse = 

E|-------------------------------------------------------------------|
B|-------------------------------------------------------------------|
G|-------------------------------------------------------------------|
D|-------------------------------------------------------------------|
A|-4---------4--444------------------8---------8--888--6-6-6-6-6-6-6-|
E|-4--44-44--4--444--111-11-1-1-1-1--8--88-88--8--888--6-6-6-6-6-6-6-|

E|----------------------------------------------------------|
B|----------------------------------------------------------|
G|----------------------------------------------------------|
D|----------------------------------------------------------|
A|-4---------4--444-----------------------------------------|
E|-4--44-44--4--444--111-11--66-6-6-6-666-6-666-66-66-6-6-6-|

E|-------------------------------------------------------------------|
B|-------------------------------------------------------------------|
G|-------------------------------------------------------------------|
D|-------------------------------------------------------------------|
A|-4---------4--444------------------8---------8--888--6-6-6-6-6-6-6-|
E|-4--44-44--4--444--111-11-1-1-1-1--8--88-88--8--888--6-6-6-6-6-6-6-|

E|------------------------------------------------------------------|
B|----------------------------------------------------------16/18---|
G|---------------------------14-13--14-13--13---16/18-14\11------14\|
D|--------------------------------13-----13-------------------------|
A|-4---------4--444-------------------------------------------------|
E|-4--44-44--4--444--111-11-----------------------------------------|

Chorus(x2)=

E|-------------------------------------------------------------------------|
B|-------------------------------------------------------------------------|
G|-------------------------------------------------------------------------|
D|6-6-6-6-6-6-6-6-6-6-6-6-6-6-6-10101010101010101010105-5-5-5-5-5-5-5-5-5-5|
A|4-4-4-4-4-4-4-4-4-4-4-4-4-4-4-8-8-8-8-8-8-8-8-8-8-8-3-3-3-3-3-3-3-3-3-3-3|
E|4-4-4-4-4-4-4-4-4-4-4-4-4-4-4-8-8-8-8-8-8-8-8-8-8-8-3-3-3-3-3-3-3-3-3-3-3|

E|-------------------------------------------------------------------------|
B|-------------------------------------------------------------------------|
G|-------------------------------------------------------------------------|
D|6-6-6-6-6-6-6-6-6-6-6-6-6-6-6-8-8-8-8-8-8-8-8-8-8-8-8-8-8-8-8-8-8-8-8-8-8|
A|4-4-4-4-4-4-4-4-4-4-4-4-4-4-4-6-6-6-6-6-6-6-6-6-6-6-6-6-6-6-6-6-6-6-6-6-6|
E|4-4-4-4-4-4-4-4-4-4-4-4-4-4-4-6-6-6-6-6-6-6-6-6-6-6-6-6-6-6-6-6-6-6-6-6-6|

Return To The Intro.
Return To The Verse.
Return To Chorus.
Return To The Intro.

Bridge(x2)=

E|---------------------------------------------------------------|
B|---------------------------------------------------------------|
G|---------------------------------------------------------------|
D|6-6-6-6-6-6-6-6-6-6-8-8-8-8-8-8-8-101010106-6-6-6-6-6-6-6-6-6-6| 
A|6-6-6-6-6-6-6-6-6-6-6-6-6-6-6-6-6-8-8-8-8-4-4-4-4-4-4-4-4-4-4-4|
E|4-4-4-4-4-4-4-4-4-4-6-6-6-6-6-6-6-8-8-8-8-4-4-4-4-4-4-4-4-4-4-4|

Interlude.

Chorus =

E|-------------------------------------------------------------------------|
B|-------------------------------------------------------------------------|
G|-------------------------------------------------------------------------|
D|6-6-6-6-6-6-6-6-6-6-6-6-6-6-6-10101010101010101010105-5-5-5-5-5-5-5-5-5-5|
A|4-4-4-4-4-4-4-4-4-4-4-4-4-4-4-8-8-8-8-8-8-8-8-8-8-8-3-3-3-3-3-3-3-3-3-3-3|
E|4-4-4-4-4-4-4-4-4-4-4-4-4-4-4-8-8-8-8-8-8-8-8-8-8-8-3-3-3-3-3-3-3-3-3-3-3|

E|----------------------------------------------------------------------|
B|----------------------------------------------------------------------|
G|----------------------------------------------------------------------|
D|6-6-6-6-6-6-6-6-6-6-6-6-6-6-6-8-8-8-8-8-8-8-8-8-8-8-8-8-8-8-8--8--10-6|
A|4-4-4-4-4-4-4-4-4-4-4-4-4-4-4-6-6-6-6-6-6-6-6-6-6-6-6-6-6-6-6--6--8--4|
E|4-4-4-4-4-4-4-4-4-4-4-4-4-4-4-6-6-6-6-6-6-6-6-6-6-6-6-6-6-6-6--6--8--4|



Tap to rate this tab
 
# A B C D E F G H I J K L M N O P Q R S T U V W X Y Z