Song name
# A B C D E F G H I J K L M N O P Q R S T U V W X Y Z

The Analogs - Oi Mlodziez tab

Help us improve GuitareTab! Take a short survey!
Intro:
E|----------------------------|
B|----------------------------|
G|----------------------------|
D|5-5-5-----------------------|
A|3-3-3---5-5-5---3--5--7--5--|
E|--------3-5-3---1--3--5--3--|

Verse:
E|---------------------------------------------------------|
B|---------------------------------------------------------|
G|7-7-7-7-7-7-5--------------------------------------------|
D|5-5-5-5-5-5-3--7-7-7-7-7-7-5-----------------------------|
A|---------------5-5-5-5-5-5-3--8-8-8-8-8-8-8-5-5-5-5-5-5-5|
E|------------------------------6-6-6-6-6-6-6-3-3-3-3-3-3-3|

Chorus:
E|---------------------------------------------------------------------|
B|---------------------------------------------------------------------|
G|---------------------------------------------------------------------|
D|-7-7-7-7-7-7-7-7-10-10-10-10-10-10-10--------------------------------|
A|-5-5-5-5-5-5-5-5-8--8--8--8--8--8--8--8-8-8-8-8-8-8-8-5-5-5-5-5-5-5-5|
E|--------------------------------------6-6-6-6-6-6-6-6-3-3-3-3-3-3-3-3|
Related for Oi Mlodziez tab