Song name
# A B C D E F G H I J K L M N O P Q R S T U V W X Y Z

The Angelic Process - Million Year Summer tab

http://www.myspace.com/theangelicprocess
D
A
F
C
G
C

1) (00.00 - 00.22)
guitar 1
--------------|
--------------|
--------------|
-3-3-0--3-3-0-|
-3-3-0--3-3-0-|
-3-3-0--3-3-0-|



-5-7-8--13-12-10-|
-----------------|
-2-4-5--10-9--7--|
-----------------|
-----------------|
-----------------|

2) (00.22 - 00.44)
palm mute
--------------------------------|
--------------------------------|
------------3------------3---2--|
0-0-0-0-0-0-0--0-0-0-0-0-0-0-0--|
0-0-0-0-0-0-0--0-0-0-0-0-0-0-0--|

3)(00.44 - 01.26)
--------------|
--------------|
2---5---------|
2---5---3---5-|
0---3---3---5-|
--------3---5-|

4)(01.26- 01.48)
guitar1
--------------------------------------|
--------------------------------------|
--------------------------------------|
-7------------------3---------------5-|
-7------------------3---------------5-|
-7------------------3---------------5-|


guitar2
-1-0------------------------------|
----3-1-3-1------0--1-0-----------|
------------2-----------2-0-2-0---|
--------------------------------2-|
----------------------------------|
----------------------------------|

5)(01.48 - 02.05)

guitar 1

---------------|
---------------|
---------------|
---------------|
-0-------------|
-0-------------|

-7--6---13--12-|
---------------|
-5--2---10--9--|
---------------|
---------------|
---------------|

6)(02.05 - 02.27)
---------------|
---------------|
-2------4----5-|
-3------0----0-|
-3------0----0-|
-3------0----0-|

7) (02.27 - 03.09)
guitar 1
---------------------------------------------------|
---------------------------------------------------|
---------------------------------------------------|
-5-------------------------1-----------------------|
-5-------------------------1-----------------------|
-5-------------------------1-----------------------|

guitar2
---------------------------11--10-------------------|
---------10--11--13-11-10----------13--11--10-11-10-|
-----12---------------------------------------------|
-12-------------------------------------------------|
----------------------------------------------------|
----------------------------------------------------|

8) (03.09 - 03.52)

7)guitar1    and   7)guitar2 reverse
Tap to rate this tab
 
# A B C D E F G H I J K L M N O P Q R S T U V W X Y Z