Song name
# A B C D E F G H I J K L M N O P Q R S T U V W X Y Z

The Answer - Evil Man tab

Artist : The Answer
Track : Evil man
Album: Everyday demons
Tabbed by: bhushan154

Please scroll down for lyrics.


Intro:

Fig 1.1

E||------------------------|
B||-------------3----------|
G||-----2---4p2----2-------|
D||--0----------------3b2--|
A||------------------------|
E||------------------------|


Fig 1.2

                            C C C C C C C C  G G G G G G G G
E||-------------------------3-3-3-3-3-3-3-3--3-3-3-3-3-3-3-3-----|
B||-------------3-----------5-5-5-5-5-5-5-5--3-3-3-3-3-3-3-3-----|
G||-----2---4p2----2--------5-5-5-5-5-5-5-5--4-4-4-4-4-4-4-4-----|
D||--0----------------5-----5-5-5-5-5-5-5-5--5-5-5-5-5-5-5-5-----|
A||-------------------------3-3-3-3-3-3-3-3--5-5-5-5-5-5-5-5-----|
E||-------------------------3-3-3-3-3-3-3-3--3-3-3-3-3-3-3-3-----|


Fig 1.3

      c   G
E||---3---3---|
B||---5---3---|
G||---5---4---|
D||---5---5---|
A||---3---5---|
E||---3---3---|


Fig 1.4

      D D D
E||---5-5-5-----------|
B||---7-7-7-----------|
G||---7-7-7-----------|
D||---7-7-7-----------|
A||---5-5-5--5--7--8--|
E||---5-5-5--5--7--8--|


Fig 1.5

      D A D A  G G G G G G G C C C G G G G    C C D C   C C D C   F F G F   F F G F
E||---5-5-5-5--3-3-3-3-3-3-3-3-3-3-3-3-3-3----3-3-x-3---3-3-x-3---x-x-x-x---x-x-x-x---|
B||---7-5-7-5--3-3-3-3-3-3-3-5-5-5-3-3-3-3----5-5-x-5---5-5-x-5---x-x-x-x---x-x-x-x---|
G||---7-4-7-4--4-4-4-4-4-4-4-5-5-5-4-4-4-3----5-5-7-5---5-5-7-5---x-x-x-x---x-x-x-x---|
D||---7-7-7-7--5-5-5-5-5-5-5-5-5-5-5-5-5-5----5-5-7-5---5-5-7-5---3-3-5-3---3-3-5-3---|
A||---5-7-5-7--5-5-5-5-5-5-5-3-3-3-5-5-5-5----3-3-3-3---3-3-3-3---3-3-5-3---3-3-5-3---|
E||---5-5-5-5--3-3-3-3-3-3-3-3-3-3-3-3-3-3----3-3-3-3---3-3-3-3---1-1-1-1---1-1-1-1---|

Fig 1.5 continued

      G G   C     F F
E||---3-3---3-3---1-1-|
B||---3-3---5-5---1-1-|
G||---4-4---5-5---2-2-|
D||---5-5---5-5---3-3-|
A||---5-5---3-3---3-3-|
E||---3-5---3-3---1-1-|


Fig 1.6

      F   E
E||---8---7--------------------|
B||---10--9--------------------|
G||---10--9--------------------|
D||---10--9--------------------|
A||---8---7--------------------|
E||---8---7----10--10--13--10--|


Fig 1.7

      D A D A D
E||---5-5-5-5-5-|
B||---7-5-7-5-5-|
G||---7-6-7-6-7-|
D||---7-7-7-7-7-|
A||---5-7-5-7-7-|
E||---5-5-5-5-5-|

Play intro:

Fig 1.1
Saw my smile as she turned around
Fig 1.1
Thought she'd lost something i have found
Fig 1.1
I said I believe we're both the same
Fig 1.1                         Fig 1.3
She said honey i cant play that game
                         Fig 1.1
Either way im a loveless man
Fig 1.3                         Fig 1.4
Either way she said i'm an evil man


Fig 1.1
I took her home to my welcome bed
Fig 1.1
Asked me why was I ......
Fig 1.1
Got that hunger as she.....
Fig 1.1
Left alone at morning light

Fig 1.4
Let everybody talk about me
Fig 1.4
Everybody's gonna talk about me
Fig 1.4
Everybody is talking about me
Fig 1.4
Let them talk

Fig 1.5
I'm an evil man
She'l never let me forget
I'm ........
I dont understand why she said
I'm............


Fig 1.4


Fig 1.1
She proclaimed that she did not choose
Fig 1.1
Looks like her affection is being misused
Fig 1.1
Head's been spinning on her..........
Fig 1.1
Blamed that pill that she chose to take


Fig 1.4
Nobody gonna stand beside her
Fig 1.4
Nobody gonna sympathise now
Fig 1.4
Nobody gonna sympathise now
Fig 1.4
Sympathise

Fig 1.5
Im an evil man
She'l never let me forget
I'm ........
I dont understand why she said

Fig 1.7
Im an evil man, Im an evil

Fig 1.1 (Listen to track)

(Lead)

Got that ....
Got that....
Got that....
Got that hunger
(Play chord D x5)


Fig 1.5
I'm an evil man
She'l never let me forget
She'l never let me forget
I'm ........
I dont understand why she said

Fig 1.7
I am evil

Fig 1.6
Tap to rate this tab
# A B C D E F G H I J K L M N O P Q R S T U V W X Y Z