Guitaretab - guitar tabs
Song name
# A B C D E F G H I J K L M N O P Q R S T U V W X Y Z

The Answer - Demon Eyes tab

Artist : The Answer
Track : The demon eyes
Album : Everyday demons
Tabbed by : bhushan154

Could not figure out the lyrics for the whole song.
Please listen to the track for timing and placement of these figures.
Please rate this tab if you find it useful. Cheers


Fig 1.3 (Uses a mild flanger kind of effect)

E||--------------------------------------------------------------------------|
B||--------------------------------------------------------------------------|
G||---0-0-3-0--0-0-3-0--0-0-3-0--0-0-3-0--0-0-3-0--0-0-3-0--0-0-3-0--0-0---0-|
D||----------------------------------------------------------------------3---|
A||--------------------------------------------------------------------------|
E||--------------------------------------------------------------------------|


Fig 1.2

E||-------------------------------------------------------------------------|
B||-------------------------------------------------------------------------|
G||-------3--------3--------3-----------------3--------3--------3----5-5-3--|
D||---5-5-3-5--5-5-3-5--5-5-3-5--5-5-3-5--5-5-3-5--5-5-3-5--5-5-3-5--5-5-3--|
A||---5-5---5--5-5---5--5-5---5--5-5-3-5--5-5---5--5-5---5--5-5---5---------|
E||-------------------------------------------------------------------------|

Fig 1.3 (Uses a mild flanger kind of effect)
[ Tab from: http://www.guitaretab.com/t/the-answer/182534.html ]
E||--------------------------------------------------------------------------|
B||--------------------------------------------------------------------------|
G||-------3--------3--------3--------3--------3--------3--------3----5-5-3---|
D||---5-5---5--5-5---5--5-5---5--5-5---5--5-5---5--5-5---5--5-5---5----------|
A||--------------------------------------------------------------------------|
E||--------------------------------------------------------------------------|


Fig 1.4

      D# D# c  c  F  F   D# D#  D# D# C C  A# A# A# A# A# A A C
E||---6--6--3--3--8--8---6--6---6--6--3-3--1--1--1--1--1--0-0-3-|
B||---8--8--5--5--10-10--8--8---8--8--5-5--3--3--3--3--3--2-2-5-|
G||---8--8--5--5--10-10--8--8---8--8--5-5--3--3--3--3--3--2-2-5-|
D||---8--8--5--5--10-10--8--8---8--8--5-5--3--3--3--3--3--2-2-5-|
A||---6--6--3--3--8--8---6--6---6--6--3-3--1--1--1--1--1--0-0-3-|
E||---6--6--3--3--8--8---6--6---6--6--3-3--1--1--1--1--1--0-0-3-|


Seq 1.5 : G  A#  C  F  G  A#  F  E  G  A#  C  F  G  A#  C  F

Seq 1.6 : A#  C  F  G


Fig 1.1
Lookin at the narrow window i tell you what i see
The pitbulls are on the street they're cloding in on me
Could it be this paranoia keeping me intact
Lock the door I load my gun this time i'm fightin back

Fig 1.2

Fig 1.3
Take a look across your desk you tell me why im here
You've been makin all that money preying on the fear
I can see your demon eyes the target has been set
Take a shot for old times sake you've done no damage yet


Fig 1.4
The way you smile all the time .........
Im alone in my home my only friend


Seq 1.5
I tried to look you in the eye
I tried to tell you when i lied

Feg 1.2

Fig 1.4

Seq 1.5

Solo: Fig 1.2

Seq 1.6

Fig 1.4
Related for Demon Eyes tab
Advertisement will be closed in 10 seconds