Song name
# A B C D E F G H I J K L M N O P Q R S T U V W X Y Z

The Answer - Whyd You Change Your Mind tab

The Answer
Everyday Demons
Why'd You Change Your Mind

*BIG NOTE*
This is my first attempt at a real song so hopefully its not to bad.
I've just done it by what I hear. Not to sure how good the end is but eh.
Comments/suggestions are welcome :)

Drop D tuning DADGBe

Key
\ - Slide down
/ - Slide up
^ - Bend string
` - Release string
x - Muted string


Verse 1

e|-------------------------------------------------|
B|-------------------------------------------------|
G|-------------------------------------------------|
D|--00-0-0-0-0-0----------00-0-0-0-0-0-------------|	x7
A|----------------3--------------------5-----------|
D|-------------------------------------------------|

Chorus 1

e|-------------------------------------------------|
B|-------------------------------------------------|
G|--7---5---77----7----77---5---77----7------------|
D|--7---5---77----7----77---5---77----7------------|
A|--5---3---55----5----55---3---55----5------------|
D|----0---0----00---00----0---0----00---00---------|


e|-------------------------------------------------|
B|-------------------------------------------------|
G|--5-4-5-4-------4-5-7---5---7\-------------------|
D|--5-4-5-4-5---5-4-5-7---5---7\-------------------|
A|--3-2-3-2-5---5-2-3-5---3---5\-------------------|
D|----------5---5-------0---0----------------------|

Verse 2

e|-------------------------------------------------|
B|-------------------------------------------------|
G|-------------------------------------------------|
D|--00-0-0-0-0-0----------00-0-0-0-0-0-------------|	x4
A|----------------3--------------------5-----------|
D|-------------------------------------------------|

Chorus 2

e|-------------------------------------------------|
B|-------------------------------------------------|
G|--7---5---77----7----77---5---77----7------------|
D|--7---5---77----7----77---5---77----7------------|
A|--5---3---55----5----55---3---55----5------------|
D|----0---0----00---00----0---0----00---00---------|


e|-------------------------------------------------|
B|-------------------------------------------------|
G|--5-4-5-4--------4-5-7---5---7----7--------------|
D|--5-4-5-4-5---5--4-5-7---5---7----7--------------|
A|--3-2-3-2-5---5--2-3-5---3---5----5--------------|
D|----------5---5--------0---0---------------------|


e|-------------------------------------------------|
B|-------------------------------------------------|
G|--7---5---77----7----77---5---77----7------------|
D|--7---5---77----7----77---5---77----7------------|
A|--5---3---55----5----55---3---55----5------------|
D|----0---0----00---00----0---0----00---00---------|


e|----------------|
B|----------------|
G|--5-4-5-4-------|
D|--5-4-5-4-5-----|
A|--3-2-3-2-5-----|
D|----------5-----|

Interlude/Pre-solo bit 1

e|-------------------------------------------------|
B|-------------------------------------------------|
G|--7-7/9-9/11--11/14--14-14\12--12\11-11\5-5-5-55-|
D|--x-x-x-x-x---x--x---x--x--x---x--x--x--x-x-x-xx-|
A|--5-5/7-7/9---9/-12--12-12\10--10\9--9-\3-3-3-33-|
D|-------------------------------------------------|


e|-------------------------------------------------|
B|-------------------------------------------------|
G|--55/7-7/9--9-9-9\7--77777--77777--777-----------|
D|--xx-x-x-x--x-x-x-x--xxxxx--xxxxx--xxx-----------|
A|--33/5-5/7--7-7-7\5--55555--55555--555-----------|
D|-------------------------------------------------|


Interlude/Pre-solo bit 2  - (Played under the solo aswell)

e|-------------------------------------------------|
B|-------------------------------------------------|
G|--7-7/9-9/11--11/14--14-14\12--12\11-11\5-5-5-55-|
D|--x-x-x-x-x---x--x---x--x--x---x--x--x--x-x-x-xx-|
A|--5-5/7-7/9---9/-12--12-12\10--10\9--9-\3-3-3-33-|
D|-------------------------------------------------|
							x2

e|---------------------------------------------------|
B|---------------------------------------------------|
G|--55/7-7/9--9-9-9\7--7/9\7--77-7-7-----------------|
D|--xx-x-x-x--x-x-x-x--x-x-x--xx-x-x-----------------|
A|--33/5-5/7--7-7-7\5--5/7\5--55-5-5-----------------|
D|---------------------------------------------------|


*solo* (In D I think)


Chorus 3

e|-------------------------------------------------|
B|-------------------------------------------------|
G|--7---5---77----7----77---5---77----7------------|
D|--7---5---77----7----77---5---77----7------------|
A|--5---3---55----5----55---3---55----5------------|
D|----0---0----00---00----0---0----00---00---------|


e|-------------------------------------------------|
B|-------------------------------------------------|
G|--5-4-5-4--------4-5-7---5---7----777------------|
D|--5-4-5-4-5---5--4-5-7---5---7----777------------|
A|--3-2-3-2-5---5--2-3-5---3---5----555------------|
D|----------5---5--------0---0---------------------|

e|-------------------------------------------------|
B|-------------------------------------------------|
G|--7---5---77----7----77---5---77----7------------|
D|--7---5---77----7----77---5---77----7------------|
A|--5---3---55----5----55---3---55----5------------|
D|----0---0----00---00----0---0----00---00---------|


e|-------------------------------------------------|
B|-------------------------------------------------|
G|--5-4-5-4--------4-5-7---5---7---5-5-5-----------|
D|--5-4-5-4-5---5--4-5-7---5---7---5-5-5-----------|
A|--3-2-3-2-5---5--2-3-5---3---5---3-3-3-----------|
D|----------5---5--------0---0---0-----------------|

Outro (Not very sure on this)

e|-------------------------------------------------|
B|-------------------------------------------------|
G|-------------------------------------------------|
D|---5^6`5-5-3-5-3-5-------5^6`5-5-0---------------|
A|-----------------------------------5-3-5---------|
D|-------------------------------------------------|

Thats all folks
Tap to rate this tab
 
# A B C D E F G H I J K L M N O P Q R S T U V W X Y Z