Song name
# A B C D E F G H I J K L M N O P Q R S T U V W X Y Z

The Answer - Tonight tab

TONIGHT - THE ANSWER
FROM EVERYDAY DEMONS

Tuning: OPEN G  (D-G-D-G-B-D)
  	STANDARD FOR SOLO

INTRO
D-----------------|-----------------|-----------------|-----------------|
B---------3-------|----------1------|--0--------------|----------3------|
G-----0-----------|------0----------|--0--------------|------0----------|
D---3---3---------|----2---2--------|--0--------------|----3---3--------|
G-0---------------|--0--------------|--0--------------|--0-----------3--|
D-----------------|-----------------|--0--------------|-----------------|


D-----------------|-----------------|-----------------|-----------------|
B--1--------------|-----------------|-----------------|-----------------|
G--0--------------|--2b-p0----------|-----------------|-----------------|
D--2--------------|--------2p0------|-----------------|-----------------|
G--0--------------|------------2p0--|-----------------|-----------------|
D-----------------|-----------------|-----------------|-----------------|

VERSE (FIGURE 1)
D-----------------------------------|-----------------------------------|
B--3-----1-----0--------------------|--3-----1-----0--------------------|
G--0-----0-----0--------------------|--0-----0-----0--------------------|
D--3-----2-----0--------------------|--3-----2-----0--------------------|
G--0-----0-----0--------------0-----|--0-----0-----0--------------0-----|
D--------------0------3p0--3--------|--------------0------3p0--3--------|


D-----------------------------------|------------------|----------------|
B--3-----1-----0--------------------|--3-----1-----0---|----------------|
G--0-----0-----0------2p0-----------|--0-----0-----0---|-0-5-0-4--0-----|
D--3-----2-----0--------------------|--3-----2-----0---|-0-5-0-4--0-----|
G--0-----0-----0------------2p0-----|--0-----0-----0---|-0-5-0-4--0-----|
D--------------0--------------------|--------------0---|----------------|

PRE-CHORUS (FIGURE 2)
D--------------------------------------------------|--------------------|
B--------------------------------------------------|--------------------|
G--0---0--2---2---2------5---5--5--5--5--5---5-----|--5--5/7------------|
D--0---0--2---2---2------5---5--7--5--7--5---5-(x4)|--5--5/7------------|  
G--0---0--2---2---2------5---5--5--5--5--5---5-----|--5--5/7------------|
D--------------------------------------------------|--------------------|


CHORUS
D--0---0-0--0-0--0--0-0--0--0-------|-----------------------------------|
B--3---3-3--3-3--3--3-3--3--3-------|-----------------------------------|
G--0---0-0--0-0--0--0-0--0--0--(X3)-|------FIGURE 2 (X1)----------------|
D--0---0-0--0-0--0--0-0--0--0-------|-----------------------------------|
G--5---5-5--5-5--4--4-4--4--4-------|-----------------------------------|
D-----------------------------------|-----------------------------------|


SOLO (STANDARD TUNING)
E-----------------------------------|-----------------------------------|
B---------15----------15------------|-----------------------------------|
G--14b16-----14b16-------14/16------|--16\14-14\12-12\11-11\9vv---------|
D-----------------------------------|-----------------------------------|
A-----------------------------------|-----------------------------------|
E-----------------------------------|-----------------------------------|


E-----------------------------------|-----------------------------------|
B-----------------------------------|--------------------15--17b19vv----|
G-----------------------12h14p12----|-12h14/16vv---14/16----------------|
D-------12h14p12--12h14---------14--|-----------------------------------|
A-12h14---------14------------------|-----------------------------------|
E-----------------------------------|-----------------------------------|


E--------15--17p15-----20p15--------|-17p15----19p15----17p15-----15----|
B-----17-----------15--------15-----|-------15-------15-------15--------|
G-16--------------------------------|-----------------------------------|
D-----------------------------------|-----------------------------------|
A-----------------------------------|-----------------------------------|
E-----------------------------------|-----------------------------------|


E-17b19------17b19r---15vvv---------|-----------------------------------|
B-----------------------------------|----------------15-----------------|
G-----------------------------------|----------------14(16)p12----------|
D-----------------------------------|-12h14vv--------------------14-----|
A-----------------------------------|-----------------------------------|
E-----------------------------------|-----------------------------------|


D-----------------------------------|-----------------------------------|
B-------15--15----------------------|-----------------------------------|
G-14b16--------14/16--16\14-14\12vv-|-----------------------------------|
D-----------------------------------|-----------------------------------|
G-----------------------------------|-----------------------------------|
D-----------------------------------|-----------------------------------|
Tap to rate this tab
# A B C D E F G H I J K L M N O P Q R S T U V W X Y Z