Song name
# A B C D E F G H I J K L M N O P Q R S T U V W X Y Z

The Answer - No Questions Asked tab

Tab: The Answer - No Questions Asked

Album: Rise (2007)

Tab by SBK (Sam B-K) Any questions etc e-mail at sam_the_coolguitar_man@hotmial.com

A great song from the guys debut album with a quite simple tab which should be 
heavily distorted to capture the sound and not very complicated.  

INTRO
E|-0-0-0-----------------|----------------------|----------------------|
A|-0-0-0-----------------|----------------------|----------------------|
G|-9-9-9-----------------|-4--6-6-7/6/7/6/9-9---|----------------------|
D|-9-9-9-----------------|-x--x-x-x-x-x-x-x-x---|----------------------|
A|-7-7-7-----------------|-2--4-4-5/4/5/4/5-5---|----------------------|
E|-0-0-0-----------------|-0--0-0-0-0-0-0-0-0--0|----------------------|

                           1,2,3,4........
                           *Rhythm/Treble Switch
E|------------------------|--------------------|
A|------------------------|--------------------|
G|-4--6-6-7/6/7/6/9-9-9---|--9*----------------| 
D|-x--x-x-x-x-x-x-x-x-x---|--9*----------------| 
A|-2--4-4-5/4/5/4/5-5-5--7|--7*----------------|
E|-0--0-0-0-0-0-0-0-0-0--0|--0*----------------|

E|------------------------|
A|------------------------|
G|-4--6-6-7/6/7/6/9-9-9---|
D|-x--x-x-x-x-x-x-x-x-x---| x8 
A|-2--4-4-5/4/5/4/5-5-5---|
E|-0--0-0-0-0-0-0-0-0-0---|

VERSE

E|------------------------|
A|------------------------|
G|-4--6-6-7/6/7/6/9-9-9---|
D|-x--x-x-x-x-x-x-x-x-x---| x4 Then repeat until Chorus
A|-2--4-4-5/4/5/4/5-5-5---|
E|-0--0-0-0-0-0-0-0-0-0---|

CHORUS

SAME RIFF AGAIN...........| 

E|------------------------|
A|------------------------|
G|-4--6-6-7/6/7/6/9-9-9---|
D|-x--x-x-x-x-x-x-x-x-x---| x4 
A|-2--4-4-5/4/5/4/5-5-5---|
E|-0--0-0-0-0-0-0-0-0-0---|

VERSE

  Wah pedal---------------|
  Heavily PM x            |
E|------------------------|
A|------------------------|
G|------------------------|
D|------------------------| x2 
A|-2-4-5/4/5/4/5-7-7------|
E|------------------------|

E|------------------------|
A|------------------------|
G|-4--6-6-7/6/7/6/9-9-9---|
D|-x--x-x-x-x-x-x-x-x-x---| x4 
A|-2--4-4-5/4/5/4/5-5-5---|
E|-0--0-0-0-0-0-0-0-0-0---|

CHORUS

E|------------------------|
A|------------------------|
G|-4--6-6-7/6/7/6/9-9-9---|
D|-x--x-x-x-x-x-x-x-x-x---| x4 
A|-2--4-4-5/4/5/4/5-5-5---|
E|-0--0-0-0-0-0-0-0-0-0---|

BREAKDOWN
Only Part I'm unsure about .....

E|---------------------|------------------------| 
E|---------------------|------------------------|
A|---------------------|------------------------|
G|-9--7--9-------------|-9--9--7--9-------------|
D|-9--7--9-------------|-9--9--7--9-------------|
A|-7--5--7----5h7-5h7--|-7--7--5--7-------------|
E|-0--0--0-------------|-0--0--0--0-------------|

SOLO

I know it myself but can't transcribe it :(
I'll upload a video for sure.....However its 
a classic E minor Pentatonic Scale with Paul's 
classic guitar licks which i have learned to 
admire and learn.

BRIDGE

  Free me............
E|-17b-------------------|------------------------|
A|-----------------------|------------------------|
G|-----------------------|-9----14b12-------------|
D|-----------------------|-9----------14p12h14----|
A|-----------------------|------------------------|
E|-----------------------|------------------------|
 
         *Rhythm/Treble Switch 
E|-----------------------|------------------------|
A|-----------------------|--------------------15b-|
G|-9-----9*--------------|--14b--14b-14b--12------|
D|-9-----9---------------|------------------------|
A|-------7---------------|------------------------|
E|-----------------------|------------------------|

E|-----------------------|
A|-----------------------|
G|-9-9-9---14b12---------|
D|-9-9-9-----------------| x2 
A|-7-7-7-----------------|
E|-----------------------|

E|-----------------------|--------------17b------|
A|-15b15b15b15b15b15b----|--15p12h15p12----------|
G|-----------------------|-----------------------|
D|-----------------------|-----------------------|
A|-----------------------|-----------------------|
E|-----------------------|-----------------------|

  I'm Gonna Find Me .....
E|------------------------|
A|------------------------|
G|-4--6-6-7/6/7/6/9-9-9---|
D|-x--x-x-x-x-x-x-x-x-x---| x4 
A|-2--4-4-5/4/5/4/5-5-5---|
E|-0--0-0-0-0-0-0-0-0-0---|

CHORUS

E|------------------------|
A|------------------------|
G|-4--6-6-7/6/7/6/9-9-9---|
D|-x--x-x-x-x-x-x-x-x-x---| x4 
A|-2--4-4-5/4/5/4/5-5-5---|
E|-0--0-0-0-0-0-0-0-0-0---|


OUTRO

  WAH PEDAL
E|------------------------|---------------------|
A|------------------------|---------------------|
G|-/9-/9-/9-9--/9-9-9-----|-/9-9-9--------------|
D|-/9-/9-/9-9--/9-9-9-----|-/9-9-9--------------| x2
A|-/7-/7-/7-7--/7-7-7-----|-/7-7-7--0h2-5h7-5h7-|
E|------------------------|---------------------|

           Drum Fill
E|------------------------|
A|------------------------|
G|-/9-7-/9----------------|
D|-/9-7-/9----------------| x4
A|-/7-5-/7----------------|
E|------------------------|

E|------------------------|
A|------------------------|
G|------------------------|
D|------------------------|  
A|-0h2-5h7 5h7------------|
E|------------------------|


E|------------------------|------------------------|
A|------------------------|------------------------|
G|------------------------|-9----9-----9---SOLO----|
D|------------------------|-9----9-----9---SOLO----|
A|-0h2-5h7 5h7------------|-7----7-----7---SOLO----|
E|------------------------|------------------------|

BIG FINISH!!!!!


E|------------------------|
A|------------------------|
G|------------------------|
D|-2----------------------|  
A|-2----------------------|
E|-0----------------------|



Tap to rate this tab
# A B C D E F G H I J K L M N O P Q R S T U V W X Y Z