Song name
# A B C D E F G H I J K L M N O P Q R S T U V W X Y Z

The Answer - Walkin Mat tab

Walkin' Mat - The Answer
From "Everyday Demons"

INTRO 1
E-----------------|-----------------|-----------------|-----------------|
B-----------------|-----------------|-----------------|-----------------|
G-----------------|-----------------|-----------------|-----------------| 
D-----------------|-----------------|-----------------|-----------------|
A--0---0---0---0--|--0---0---0---0--|--0---0---0---0--|--0---0---0---0--|
E-----------------|-----------------|-----------------|-----------------|
*Repeat

E-----------------------------------|-----------------------------------|
B-----------------------------------|-----------------------------------|
G-----------------------------------|-----------------------------------|
D-14p12s11--12p11s9--11p9s7--9p7s5--|-14p12p11--12p11s9--11p9s7--9p7s5--|
A--0---------0--------0------0------|--0---------0--------0------0------|
E-----------------------------------|-----------------------------------|


E-----------------------------------|--0----------0---|-----------------|
B-----------------------------------|--3--3-------3---|-----------------|
G-----------------------------------|--2--2--4s6--2---|-----------------|
D-14p12p11--12p11s9--11p9s7--9p7s5--|--0--0--0----0---|-----------------|
A--0---------0--------0------0------|-----------------|-----------------|
E-----------------------------------|-----------------|-----------------|


E-----------------|-----------------|-----------------|-----------------|
B-----------------|-----------------|-----------------|-----------------|
G-----------------|-----------------|-----------------|---------5b------|
D----7----5---4---|-----------------|----7----5---4---|----5p0-----7----|
A--0----0---0-----|-0--3p0--3b--0---|--0----0---0-----|-0---------------|
E-----------------|-----------------|-----------------|-----------------|


E-----------------|-----------------|-----------------|-----------------|
B-----------------|-----------------|-----------------|-----------------|
G-----------------|-----------------|-----------------|-----------------|
D----7----5---4---|------7----5---4-|-----------------|-----------------|
A--0----0---0-----|----0----0---0---|-0--3p0--3b--0---|-----------------|
E-----------------|-----------------|-----------------|-----------------|


VERSE
E-----------------|-----------------|-----------------|-----------------|
B-----------------|-----------------|-----------------|-----------------|
G-----------------|-----------------|-----------------|-----------------|
D----7----5---4---|-----------------|----7----5---4---|-----------------|
A--0----0---0-----|-----------------|--0----0---0-----|-----------------|
E-----------------|-----------------|-----------------|-----------------|


E-----------------|-----------------|-----------------|-----------------|
B-----------------|-----------------|-----------------|-----------------|
G-----------------|-----------------|-----------------|---------5b------|
D----7----5---4---|-----------------|----7----5---4---|----5p0-----7----|
A--0----0---0-----|-0--3p0--3b--0---|--0----0---0-----|-0---------------|
E-----------------|-----------------|-----------------|-----------------|
*Repeat x2


"...Are you talking to me..."
E--0------0--0-0--|--0---0-0--------|--0------0--0-0--|--0---0-0--------|
B--3---3--3--3-3--|--3---3-3--3--3--|--3---3--3--3-3--|--3---3-3--3--3--|
G--2---2--2--2-2--|--0---0-0--0--0--|--2---2--2--2-2--|--0---0-0--0--0--|
D--0---0--0--0-0--|--0---0-0--0--0--|--0---0--0--0-0--|--0---0-0--0--0--|
A-----------------|--3---3-3--2--3--|-----------------|--3---3-3--2--3--|
E-----------------|-----------------|-----------------|-----------------|
*Repeat x2


"...not gonna be your walkin' mat..."
E-----------------|-----------------|-----------------|-----------------|
B-----------------|-----------------|-----------------|-----------------|
G--2--------------|-----------------|-----------------|-----------------|
D--2--------------|-----------------|--9--9--9--9\----|--5--------------|
A--0--------------|-----------------|--7--7--7--7\----|----4b---5-------|
E-----------------|-----------------|-----------------|-----------3b----|


CHORUS
   A      G          D   G             G      D   G      D   A
E---------3---3---|--2---3--3-------|--3--3---2---3---|--2--------------|
B--2--2---3---3---|--3---3--3-------|--3--3---3---3---|--3---2--2-------|
G--2--2---0---0---|--2---0--0-------|--0--0---2---0---|--2---2--2-------|
D--2--2---0---0---|--0---0--0-------|--0--0---0---0---|--0---2--2-------|
A--0--0---2---2---|------2--2-------|--2--2-------2---|------0--0-------|
E---------3---3---|------3--3-------|--3--3-------3---|-----------------|

   A      G          D   G             G      D   G      D   G
E---------3---3---|--2---3--3-------|--3--3---2---3---|--2---3--3-------|
B--2--2---3---3---|--3---3--3-------|--3--3---3---3---|--3---3--3-------|
G--2--2---0---0---|--2---0--0-------|--0--0---2---0---|--2---0--0-------|
D--2--2---0---0---|--0---0--0-------|--0--0---0---0---|--0---0--0-------|
A--0--0---2---2---|------2--2-------|--2--2-------2---|------2--2-------|
E---------3---3---|------3--3-------|--3--3-------3---|------3--3-------|


INTERLUDE
E--------5--------|--------3--------|--------0--------|--------0--------|
B------5----------|------3----------|------3----------|------3----------|
G-----------------|-----------------|-----------------|-----------------|
D--7--------------|--5--------------|--4--------------|--4--------------|
A-----------------|-----------------|-----------------|-----------------|
E-----------------|-----------------|-----------------|-----------------|
*Repeat x2


E-----------------|-----------------|-----------------|-----------------|
B-----------------|-----------------|-----------------|-----------------|
G-----------------|-----------------|-----------------|-----------------|
D----7----5---4---|--0--4p0--4--5---|----7----5---4---|--0--4p0--4--5---|
A--0----0---0-----|-----------------|--0----0---0-----|-----------------|
E-----------------|-----------------|-----------------|-----------------|
*Repeat x2


SOLO/OUTRO
E-----------------|-----------------|-----------------|-----------0-----|
B--10-------------|-10--------------|-12-------12-----|-----------10----|
G--12b------------|-12b-p11-12~~----|-14b------14b----|-----------------|
D-----------------|-----------------|-----------------|-11-11h12--------|
A-----------------|-----------------|-----------------|-----------------|
E-----------------|-----------------|-----------------|-----------------|


E-----------0-----|-----------------|-----------------|-----------------|
B-----------10----|--5--------------|-----------------|-----------------|
G-----------------|--7b---7rb-p5----|-7p5---7p5-------|----------2h4b---|
D-11-11h12--------|-----------------|-----7-----7p5h7-|------2h4--------|
A-----------------|-----------------|-----------------|--2h4------------|
E-----------------|-----------------|-----------------|-----------------|


E-----------------|-----------------|-----------------|-----------------|
B-----------------|-5p3-2h3p2---3p2-|----2~~----------|-17---17-17---17-|
G--4p2---2~~------|-----------4-----|--4--------------|-16b-----16b-----|
D------4----------|-----------------|-----------------|-----------------|
A-----------------|-----------------|-----------------|-----------------|
E-----------------|-----------------|-----------------|-----------------|


E-----------------|-----------------|----17---17------|-----------------|
B-17---17-17---17-|-----------------|-15b--15b---15b--|-----------------|
G-16b-----16b--16-|-14~~--h16-------|-----------------|------DRUM-------|
D-----------------|-----------------|-----------------|------FILL-------|
A-----------------|-----------------|-----------------|-----------------|
E-----------------|-----------------|-----------------|-----------------|


E-----------------|-----------------|-----------------|-----------------|
B--3-----3----3---|--3--------------|--3----3----3----|-----------------|
G--2-----0----2---|--0--------------|--2----0----2----|------DRUM-------|
D--0-----0----0---|--0--------------|--0----0----0----|------FILL-------|
A--------3--------|--3--------------|-------3---------|-----------------|
E-----------------|-----------------|-----------------|-----------------|


E-----------------|-----------------|-----------------|-----------------|
B--3----3----3----|-3-----3---------|-----------------|-----------------|
G--2----0----2----|-0-----2---------|--2--------------|-----------------|
D--0----0----0----|-0-----0---------|--2--------------|-----------------|
A-------3---------|-3---------3b----|--0--------------|-----------------|
E-----------------|-----------------|-----------------|-----------------|
Tap to rate this tab
 
# A B C D E F G H I J K L M N O P Q R S T U V W X Y Z