Song name
# A B C D E F G H I J K L M N O P Q R S T U V W X Y Z

The Answer - Spectacular tab

THE ANSWER - Spectacular

Tabbed by: lzparkma
Tuning: Drop D

Intro

e|-2-2--3-3-3--2--2-2-2--3-3-|-2-2--3-3-3--2--2-2-2--0-0-|
B|-3-3--3-3-3--3--3-3-3--3-3-|-3-3--3-3-3--3--3-3-3--3-3-|
G|-2-2--2-2-2--2--2-2-2--2-2-|-2-2--2-2-2--2--2-2-2--2-2-|
D|---------------------------|---------------------------|
A|---------------------------|---------------------------|
D|---------------------------|---------------------------|

or maybee

e|---------------------------|---------------------------|
B|-7-7--8-8-8--7--7-7-7--8-8-|-7-7--8-8-8--7--7-7-7--5-5-|
G|-7-7--7-7-7--7--7-7-7--7-7-|-7-7--7-7-7--7--7-7-7--7-7-|
D|-7-7--7-7-7--7--7-7-7--7-7-|-7-7--7-7-7--7--7-7-7--7-7-|
A|-5-5--5-5-5--5--5-5-5--5-5-|-5-5--5-5-5--5--5-5-5--5-5-|
D|---------------------------|---------------------------|



verse

e|-2--------|-2--------|-2-2--3-3-3--2--2-2-2--3-3-|-2-2--3-3-3--2--2-2-2--0-0-|
B|-3--------|-3--------|-3-3--3-3-3--3--3-3-3--3-3-|-3-3--3-3-3--3--3-3-3--3-3-|
G|-2--------|-3--------|-2-2--2-2-2--2--2-2-2--2-2-|-2-2--2-2-2--2--2-2-2--2-2-|
D|----------|----------|---------------------------|---------------------------|
A|----------|----------|---------------------------|---------------------------|
D|----------|----------|---------------------------|---------------------------|

chorus

e|----------|----------|--------------------|--------------------|
B|----------|----------|--------------------|--------------------|
G|----------|----------|----------------(5)-|----------------(5)-|
D|-2--2-2---|-5-5------|-----------------3--|-----------------3--|
A|-2--2-2---|-5-5--9\--|---5p3-5p3---5p3----|---5p3-5p3---5p3----|
D|-2--2-2---|-5-5-(9\)-|-0---------0--------|-0---------0--------|

I don't think this is correct but just wanted to get the ball rolling on this one...
Tap to rate this tab
# A B C D E F G H I J K L M N O P Q R S T U V W X Y Z