Song name
# A B C D E F G H I J K L M N O P Q R S T U V W X Y Z

The Answer - Spectacular tab

THE ANSWER - Spectacular

Tabbed by: lzparkma
Tuning: Drop D

After watching the official video, a live video and the acoustic version...

Intro

4 times

e|------------------------------|--------------------------------|
B|-7--7-x-x-x-x-x-7--7--x-8--8--|-7--7-x-x-x-x-x-7--7--x-5-5-5-5-|
G|-7--7-x-x-x-x-x-7--7--x-7--7--|-7--7-x-x-x-x-x-7--7--x-5-5-5-5-|
D|-5--5-x-x-x-x-x-5--5--x-5--5--|-5--5-x-x-x-x-x-5--5--x-5 5-5-5-|
A|------------------------------|--------------------------------|
D|------------------------------|--------------------------------|

Verse

"Don't forget how it feels when we are young"

e|-2--|----|-------------------------------|-------------------------------|
B|-3--|----|-------------------------------|-------------------------------|
G|-2--|----|-------------------------------|-------------------------------|
D|-0--|----|-------------------------------|-------------------------------|
A|-0--|----|-3h5-5-5-5-5-5-3h5-5-5-3-3-3-3-|-3h5-5-5-5-5-5-3h5-5-5-3-3-3-3-|
D|----|----|-------------------------------|-------------------------------|


e|-2--|----|------------------------------|--------------------------------|
B|-3--|----|-7--7-x-x-x-x-x-7--7--x-8--8--|-7--7-x-x-x-x-x-7--7--x-5-5-5-5-|
G|-2--|----|-7--7-x-x-x-x-x-7--7--x-7--7--|-7--7-x-x-x-x-x-7--7--x-5-5-5-5-|
D|-0--|----|-5--5-x-x-x-x-x-5--5--x-5--5--|-5--5-x-x-x-x-x-5--5--x-5 5-5-5-|
A|-0--|----|------------------------------|--------------------------------|
D|----|----|------------------------------|--------------------------------|

Chorus

"Oh, we could be, spec-tac-u-lar"

e|-0-0-0--|-0-0-0--|--------------------------------------|--------------------------------------|
B|-8-8-8--|-3-3-3--|--------------------------------------|--------------------------------------|
G|-7-7-7--|-0-0-0--|----------------------------------10--|----------------------------------10--|
D|-0-0-0--|-2-2-2--|----------------------------------10--|----------------------------------10--|
A|-7-7-7--|-3-3-3--|--------------------------------------|--------------------------------------|
D|-x-x-x--|-x-x-x--|-0--12-10-12-10-12-0--12-10-12-10-----|-0--12-10-12-10-12-0--12-10-12-10-----|

"Yea, we could be, spec-tac-u-lar"

e|-3-3-3--|--------|------------------------------|--------------------------------|
B|-3-3-3--|--------|-7--7-x-x-x-x-x-7--7--x-8--8--|-7--7-x-x-x-x-x-7--7--x-5-5-5-5-|
G|-0-0-0--|--------|-7--7-x-x-x-x-x-7--7--x-7--7--|-7--7-x-x-x-x-x-7--7--x-5-5-5-5-|
D|-2-2-2--|-5-5-5--|-5--5-x-x-x-x-x-5--5--x-5--5--|-5--5-x-x-x-x-x-5--5--x-5 5-5-5-|
A|-3-3-3--|-5-5-5--|------------------------------|--------------------------------|
D|-x-x-x--|-5-5-5--|------------------------------|--------------------------------|

Verse x 2

"I swim for shore, let the ocean cool my blood"

Chorus variation

"Yea, we could be, spec-tac-u-lar"

e|-0-0-0--|-0-0-0--|--------------------------------------|--------------------------------------|
B|-8-8-8--|-3-3-3--|--------------------------------------|--------------------------------------|
G|-7-7-7--|-0-0-0--|----------------------------------10--|----------------------------------10--|
D|-0-0-0--|-2-2-2--|----------------------------------10--|----------------------------------10--|
A|-7-7-7--|-3-3-3--|--------------------------------------|--------------------------------------|
D|-x-x-x--|-x-x-x--|-0--12-10-12-10-12-0--12-10-12-10-----|-0--12-10-12-10-12-0--12-10-12-10-----|

"Oh, we could be, spec-tac-u-lar"

e|-0-0-0--|--------|--------------------------------------|--------------------------------------|
B|-3-3-3--|--------|--------------------------------------|--------------------------------------|
G|-0-0-0--|--------|----------------------------------10--|----------------------------------10--|
D|-2-2-2--|-5-5-5--|----------------------------------10--|----------------------------------10--|
A|-3-3-3--|-5-5-5--|--------------------------------------|--------------------------------------|
D|-x-x-x--|-5-5-5--|-0--12-10-12-10-12-0--12-10-12-10-----|-0--12-10-12-10-12-0--12-10-12-10-----|


Bridge

"we all could be, what ever it is we think we are"


e|-0-0-0--|-0-0-0--|
B|-8-8-8--|-3-3-3--|
G|-7-7-7--|-0-0-0--|
D|-0-0-0--|-2-2-2--|
A|-7-7-7--|-3-3-3--|
D|-x-x-x--|-x-x-x--|

"They might think it's easy"

3 times 

e|-------------|------------|------------|-------------|
B|-------------|------------|------------|-------------|
G|-9--9--9-9-9-|-5-5--5-5-5-|-7-7--7-7-7-|-7--7--7-7-7-|
D|-9--9--9-9-9-|-5-5--5-5-5-|-7-7--7-7-7-|-7--7--7-7-7-|
A|-7--7--7-7-7-|-3-3--3-3-3-|-5-5--5-5-5-|-5--5--5-5-5-|
D|-------------|------------|------------|-------------|

"Ammunition, forced contrition"

e|-------------|------------|------------|
B|-------------|------------|------------|
G|-9--9--9-9-9-|-5-5--5-5-5-|------------|
D|-9--9--9-9-9-|-5-5--5-5-5-|------------|
A|-7--7--7-7-7-|-3-3--3-3-3-|------------|
D|-------------|------------|------------|
 
"Ain't got a heart but ain't got a sole"

7 times

e|--------------------------|
B|--------------------------|
G|--------------------------|
D|---------3----------------|
A|-3h5-5-5---5-5-3h5-5-5----|
D|-----------------------0--|


e|------|------|------|------|------|------|
B|------|------|------|------|------|------|
G|-7----|-5----|-4----|-2----|------|------|
D|------|------|------|------|-5--4-|-0----|
A|------|------|------|------|------|------|
D|------|------|------|------|------|------|
 
"We could be, spec-tac-u-lar"

e|-0-0-0--|-0-0-0--|--------------------------------------|--------------------------------------|
B|-8-8-8--|-3-3-3--|--------------------------------------|--------------------------------------|
G|-7-7-7--|-0-0-0--|----------------------------------10--|----------------------------------10--|
D|-0-0-0--|-2-2-2--|----------------------------------10--|----------------------------------10--|
A|-7-7-7--|-3-3-3--|--------------------------------------|--------------------------------------|
D|-x-x-x--|-x-x-x--|-0--12-10-12-10-12-0--12-10-12-10-----|-0--12-10-12-10-12-0--12-10-12-10-----|

"Yea, we could be, spec-tac-u-lar"

e|-0-0-0--|--------|--------------------------------------|--------------------------------------|
B|-3-3-3--|--------|--------------------------------------|--------------------------------------|
G|-0-0-0--|--------|----------------------------------10--|----------------------------------10--|
D|-2-2-2--|-5-5-5--|----------------------------------10--|----------------------------------10--|
A|-3-3-3--|-5-5-5--|--------------------------------------|--------------------------------------|
D|-x-x-x--|-5-5-5--|-0--12-10-12-10-12-0--12-10-12-10-----|-0--12-10-12-10-12-0--12-10-12-10-----|


e|-0-0-0--|-0-0-0--|--------------------------|--------------------------|
B|-8-8-8--|-3-3-3--|--------------------------|--------------------------|
G|-7-7-7--|-0-0-0--|--------------------------|--------------------------|
D|-0-0-0--|-2-2-2--|-----------------------3--|-----------------------3--|
A|-7-7-7--|-3-3-3--|-5-3---5-5---5-3---5------|-5-3---5-5---5-3---5------|
D|-x-x-x--|-x-x-x--|---------------------0----|---------------------0----|


Outro

"I know that we could be spec-tac-u-lar"

e|-3-3-3--|--------|--------------------------------------|--------------------------------------|
B|-3-3-3--|--------|--------------------------------------|--------------------------------------|
G|-0-0-0--|--------|----------------------------------10--|----------------------------------10--|
D|-2-2-2--|-5-5-5--|----------------------------------10--|----------------------------------10--|
A|-3-3-3--|-5-5-5--|--------------------------------------|--------------------------------------|
D|-x-x-x--|-5-5-5--|-0--12-10-12-10-12-0--12-10-12-10-----|-0--12-10-12-10-12-0--12-10-12-10-----|

"spec-tac-u-lar, lur, lur"

6 times with a bit of wah I think

e|--------------------------------------|
B|--------------------------------------|
G|----------------------------------10--|
D|----------------------------------10--|
A|--------------------------------------|
D|-0--12-10-12-10-12-0--12-10-12-10-----|
Tap to rate this tab
# A B C D E F G H I J K L M N O P Q R S T U V W X Y Z