Song name
# A B C D E F G H I J K L M N O P Q R S T U V W X Y Z

The Answer - In To The Gutter tab

Help us improve GuitareTab! Take a short survey!
Artist: The Answer
Song: Into The Gutter
Album: Rise
Tabbed By: Indie Nation (Dan)

Tab ledgend:
h = hammer on
b* = bend up a quater (halfway between the note your on and the next one up)(2) = ghost note

NB: keep your guitar all fuzzed up!!

main riff

e------------------------------------------------|
b------------------------------------------------|
g----------------7h9---------------7h9-----------| x6
d----------7h9---------------7h9---------7h9-----|
a----5h7---------------5h7-----------------------|
E--0---------------------------------------------|

Only for intro after main riff
e------------------------------------|
b------------------------------------|
g-------------7h9--7h9---------------|
d--------7h9-----------------7-------|
a---5h7-------------------5--7-------|
E-0---------------------0----5-------|

Chorus
e------------------------------------------------------------|
b------------------------------------------------------------|
g--------------------------------------7-7-77-7--------------|
d--------------------------------------7-7-77-7-7-7-77-7-----|
a--5b*--22-2---5b*--22-2---5B*--22-2---5-5-55-5-7-7-77-7-----|
e--3b*--00-0-0-3B*--00-0-0-3b*--00-0-0----------5-5-55-5-0---|


Verse 1
e-----------------------------------------------------------|
b-let ring--------------------------------------------------|
g------------7-7-77-7---------------------------------------|
d--2---------7-7-77-7-7-7-77-7------------------------------|
a--2---------5-5-55-5-7-7-77-7------------------------------|
e--0------------------5-5-55-5------------------------------|

other verses
e----------------------------------------------------------------------|
b----------------------------------------------------------------------|
g-----------------7h9------------7h9----------------7-7-77-7-----------|
d--(2)-------7h9------------7h9-------7h9-----------7-7-77-7-7-7-77----|
a--(2)--5h7------------5h7--------------------------5-5-55-5-7-7-77----|
e---0--------------------------------------------------------5-5-55----|

Solo

Stil need to work it out.

great song and if its good enough for jimmy page its good enough for me
the other version on here is'nt working so i decided to av a go myself
i'll add the rest once i work it out.

                       cheers indie nation
Related for In To The Gutter tab