Song name
# A B C D E F G H I J K L M N O P Q R S T U V W X Y Z

The Answer - Come Follow Me tab

 Come, Follow Me                                 


                                                                   Ready the Way



     Add Delay @ around 125 bps                       
                                     PM PM            
     E                          Q    S  S  E  Q.      
D||--------------------------------------------------|
A||--------------------------------------------------|
F||--------------------------------------------------|
C||--2-------------------------------2--2--2---------|
G||--2-------------------------------2--2--2---------|
D||--0-------------------------------0--0--0---------|


  (2 sec. delay/feedback)                                                  
                                                          PM PM            
  E                       E  E   Q    E  E  E     E  Q    S  S  E  Q.      
--------------------------------10-------------|--------------------------|
--------------------------7--8--------8--7-----|--------------------------|
--------------------------------------------7--|--------------------------|
-----------------------------------------------|--2-------2--2--2---------|
-----------------------------------------------|--2-------2--2--2---------|
-----------------------------------------------|--0-------0--0--0---------|


                                        PM PM            
  E  E  S  S  E  E  E  E  E     E  Q    S  S  E  Q.      
-----------------------------|--------------------------|
-----7--7h-8p-7--------------|--------------------------|
-----------------7--5--4-----|--------------------------|
--------------------------5--|--2-------2--2--2---------|
-----------------------------|--2-------2--2--2---------|
-----------------------------|--0-------0--0--0---------|


  E  E  E   Q    E  E  E     E  E  E  E  E  E   E  E   
-----------10-------------|---------------------------|
-----7--8--------8--7-----|--------8--------8--10--7--|
-----------------------7--|--4--5-----4--5------------|
--------------------------|---------------------------|
--------------------------|---------------------------|
--------------------------|---------------------------|


                                       PM PM            
  E  E   E  E  E  E   E  E     E  Q    S  S  E  Q.      
--------10-----------10-----|--------------------------|
--L--8------8--7--8------8--|--------------------------|
----------------------------|--------------------------|
----------------------------|--2-------2--2--2---------|
----------------------------|--2-------2--2--2---------|
----------------------------|--0-------0--0--0---------|


                                     PM PM            
  E  E  E   Q    E  E  E     E  Q    S  S  E  Q.      
-----------10-------------|--------------------------|
-----7--8--------8--7-----|--------------------------|
-----------------------7--|--------------------------|
--------------------------|--2-------2--2--2---------|
--------------------------|--2-------2--2--2---------|
--------------------------|--0-------0--0--0---------|


                                        PM PM            
  E  E  S  S  E  E  E  E  E     E  Q    S  S  E  Q.      
-----------------------------|--------------------------|
-----7--7h-8p-7--------------|--------------------------|
-----------------7--5--4-----|--------------------------|
--------------------------5--|--2-------2--2--2---------|
-----------------------------|--2-------2--2--2---------|
-----------------------------|--0-------0--0--0---------|


  E  E  E   Q    E  E  E     E  E  E  E  E  E   E  E   
-----------10-------------|---------------------------|
-----7--8--------8--7-----|--------8--------8--10--7--|
-----------------------7--|--4--5-----4--5------------|
--------------------------|---------------------------|
--------------------------|---------------------------|
--------------------------|---------------------------|


  E  E   E  E  E  E   E  E   
--------10-----------10-----|
--L--8------8--7--8------8--|
----------------------------|
----------------------------|
----------------------------|
----------------------------|


   Listen to recording for strum pattern                             
                                         PM  PM      PM  PM      PM  
   E                                     E   E   E   E   E   E   E   
--------------------------------------------------------------------|
--------------------------------------------------------------------|
--12------------------------------------12--12--12--12--12--12--12--|
--14------------------------------------14--14--14--14--14--14--14--|
--------------------------------------------------------------------|
--------------------------------------------------------------------|


   PM      PM  PM      PM      PM         PM  PM      PM  PM      PM  
   E   E   E   E   E   E   E   E      E   E   E   E   E   E   E   E   
----------------------------------|----------------------------------|
----------------------------------|----------------------------------|
--12--12--12--12--12--12--14--14--|--11--11--11--11--11--11--11--11--|
--14--14--14--14--14--14--16--16--|--12--12--12--12--12--12--12--12--|
----------------------------------|----------------------------------|
----------------------------------|----------------------------------|


   PM      PM  PM                         PM  PM      PM  PM      PM  
   E   E   E   E   E   E   E   E      E   E   E   E   E   E   E   E   
----------------------------------|----------------------------------|
----------------------------------|----------------------------------|
--11--11--11--11--11--11---9---9--|--12--12--12--12--12--12--12--12--|
--12--12--12--12--12--12--10--10--|--14--14--14--14--14--14--14--14--|
----------------------------------|----------------------------------|
----------------------------------|----------------------------------|


   PM      PM  PM      PM      PM         PM  PM      PM  PM          
   E   E   E   E   E   E   E   E      E   E   E   E   E   E   E   E   
----------------------------------|----------------------------------|
----------------------------------|----------------------------------|
--12--12--12--12--12--12--14--14--|--11--11--11--11--11--11--11--11--|
--14--14--14--14--14--14--16--16--|--12--12--12--12--12--12--12--12--|
----------------------------------|----------------------------------|
----------------------------------|----------------------------------|


                                          PM  PM      PM  PM      PM  
   E   E   E   E   E   E   E   E      E   E   E   E   E   E   E   E   
----------------------------------|----------------------------------|
----------------------------------|----------------------------------|
--16--16--14--14--12--12--11--11--|--12--12--12--12--12--12--12--12--|
--17--17--16--16--14--14--12--12--|--14--14--14--14--14--14--14--14--|
----------------------------------|----------------------------------|
----------------------------------|----------------------------------|


   PM      PM  PM      PM      PM         PM  PM      PM  PM      PM  
   E   E   E   E   E   E   E   E      E   E   E   E   E   E   E   E   
----------------------------------|----------------------------------|
----------------------------------|----------------------------------|
--12--12--12--12--12--12--14--14--|--11--11--11--11--11--11--11--11--|
--14--14--14--14--14--14--16--16--|--12--12--12--12--12--12--12--12--|
----------------------------------|----------------------------------|
----------------------------------|----------------------------------|


   PM      PM  PM                         PM  PM      PM  PM      PM  
   E   E   E   E   E   E   E   E      E   E   E   E   E   E   E   E   
----------------------------------|----------------------------------|
----------------------------------|----------------------------------|
--11--11--11--11--11--11---9---9--|--12--12--12--12--12--12--12--12--|
--12--12--12--12--12--12--10--10--|--14--14--14--14--14--14--14--14--|
----------------------------------|----------------------------------|
----------------------------------|----------------------------------|


   PM      PM  PM      PM      PM         PM  PM      PM  PM          
   E   E   E   E   E   E   E   E      E   E   E   E   E   E   E   E   
----------------------------------|----------------------------------|
----------------------------------|----------------------------------|
--12--12--12--12--12--12--14--14--|--11--11--11--11--11--11--11--11--|
--14--14--14--14--14--14--16--16--|--12--12--12--12--12--12--12--12--|
----------------------------------|----------------------------------|
----------------------------------|----------------------------------|


                                             PM PM            
   E   E   E   E   E   E   E   E     E  Q    S  S  E  Q.      
----------------------------------|--------------------------|
----------------------------------|--------------------------|
--16--16--14--14--12--12--11--11--|--------------------------|
--17--17--16--16--14--14--12--12--|--2-------2--2--2---------|
----------------------------------|--2-------2--2--2---------|
----------------------------------|--0-------0--0--0---------|


                                          PM PM            
  E   E   E   Q     E   E   E     E  Q    S  S  E  Q.      
-------------------------------|--------------------------|
-------------15----------------|--------------------------|
-----11--12--------12--11------|--------------------------|
---------------------------12--|--2-------2--2--2---------|
-------------------------------|--2-------2--2--2---------|
-------------------------------|--0-------0--0--0---------|


                                               PM PM            
  E   E   S   S   E   E   E  E   E     E  Q    S  S  E  Q.      
------------------------------------|--------------------------|
------------------------------------|--------------------------|
-----11--11h-12p-11-----------------|--------------------------|
---------------------12--10--9------|--2-------2--2--2---------|
--------------------------------10--|--2-------2--2--2---------|
------------------------------------|--0-------0--0--0---------|


  E   E   E   Q     E   E   E     E   E   E  E   E   E  E   E   
-------------------------------|-------------------------------|
-------------15----------------|-------------------------------|
-----11--12--------12--11------|---------12---------12-----11--|
---------------------------12--|--9--10------9--10------9--12--|
-------------------------------|-------------------------------|
-------------------------------|-------------------------------|


   W                                                         
--------------------|-------------------|-------------------|
--------------------|-------------------|-------------------|
---L----------------|-------------------|-------------------|
---L----------------|-------------------|-------------------|
--------------------|-------------------|-------------------|
--------------------|-------------------|-------------------|


-------------------|-------------------|
-------------------|-------------------|
-------------------|-------------------|
-------------------|-------------------|
-------------------|-------------------|
-------------------|-------------------|


  Delay off                                                          
                 PM PM PM PM PM PM                                   
  E         Q    S  S  S  S  S  S  E  E     E  E  E   Q    E  E  E   
-----------------------------------------|-----------10-------------|
-----------------------------------------|-----7--8--------8--7-----|
-----------------------------------------|-----------------------7--|
--2--------------2--2--2--2--2--2--2-----|--------------------------|
--2--------------2--2--2--2--2--2--2-----|--------------------------|
--0--------------0--0--0--0--0--0--0-----|--------------------------|


   E   E   E   E   E   E   E   E      E   E   E   E   E   E   E   E   
----------------------------------|----------------------------------|
----------------------------------|----------------------------------|
----------------------------------|----------------------------------|
--10--10--10--10--10--10---9---9--|---9---9---9---9---9---9---9---9--|
--10--10--10--10--10--10--10--10--|--10--10--10--10--10--10--10--10--|
---8---8---8---8---8---8---8---8--|---8---8---8---8---8---8---8---8--|


          PM PM PM PM PM PM                                   
  E  Q    S  S  S  S  S  S  E  E     E  E  E   Q    E  E  E   
----------------------------------|-----------10-------------|
----------------------------------|-----7--8--------8--7-----|
----------------------------------|-----------------------7--|
--2-------2--2--2--2--2--2--2-----|--------------------------|
--2-------2--2--2--2--2--2--2-----|--------------------------|
--0-------0--0--0--0--0--0--0-----|--------------------------|


   E   E   E   E   E   E   E   E      E   E   E   E   E   E   E   E   
----------------------------------|----------------------------------|
----------------------------------|----------------------------------|
----------------------------------|----------------------------------|
--10--10--10--10--10--10--12--12--|--12--14--14--14--14--14--14--14--|
--10--10--10--10--10--10--12--12--|--12--12--12--12--12--12--12--12--|
---8---8---8---8---8---8--10--10--|--10--10--10--10--10--10--10--10--|


          PM PM PM PM PM PM                                   
  E  Q    S  S  S  S  S  S  E  E     E  E  E   Q    E  E  E   
----------------------------------|-----------10-------------|
----------------------------------|-----7--8--------8--7-----|
----------------------------------|-----------------------7--|
--2-------2--2--2--2--2--2--2-----|--------------------------|
--2-------2--2--2--2--2--2--2-----|--------------------------|
--0-------0--0--0--0--0--0--0-----|--------------------------|


   E   E   E   E   E   E   E   E      E   E   E   E   E   E   E   E   
----------------------------------|----------------------------------|
----------------------------------|----------------------------------|
----------------------------------|----------------------------------|
--10--10--10--10--10--10---9---9--|---9---9---9---9---9---9---9---9--|
--10--10--10--10--10--10--10--10--|--10--10--10--10--10--10--10--10--|
---8---8---8---8---8---8---8---8--|---8---8---8---8---8---8---8---8--|


          PM PM PM PM PM PM                                   
  E  Q    S  S  S  S  S  S  E  E     E  E  E   Q    E  E  E   
----------------------------------|-----------10-------------|
----------------------------------|-----7--8--------8--7-----|
----------------------------------|-----------------------7--|
--2-------2--2--2--2--2--2--2-----|--------------------------|
--2-------2--2--2--2--2--2--2-----|--------------------------|
--0-------0--0--0--0--0--0--0-----|--------------------------|


   E   E   E   E   E   E   E   E      E   E   E   E   E   E   E   E   
----------------------------------|----------------------------------|
----------------------------------|----------------------------------|
----------------------------------|----------------------------------|
--10--10--10--10--10--10--12--12--|--12--14--14--14--14--14--14--14--|
--10--10--10--10--10--10--12--12--|--12--12--12--12--12--12--12--12--|
---8---8---8---8---8---8--10--10--|--10--10--10--10--10--10--10--10--|


  Q.     Q.     Q       W                   Q.     Q.     Q     
---------------------|-------------------|---------------------|
---------------------|-------------------|---------------------|
--4------4------4----|--L----------------|--4------4------4----|
--2------2------2----|--L----------------|---------------------|
--2------2------2----|--L----------------|--2------2------2----|
--0------0------0----|--L----------------|--3------3------3----|


  W                   Q.     Q.     Q       W                 
-------------------|---------------------|-------------------|
-------------------|---------------------|-------------------|
--L----------------|--9------9------9----|--L----------------|
-------------------|---------------------|-------------------|
--L----------------|--7------7------7----|--L----------------|
--L----------------|--8------8------8----|--L----------------|


   Q.      Q.      Q        W                   Q.     Q.     Q     
------------------------|--------------------|---------------------|
------------------------|--------------------|---------------------|
--11------11------11----|---L----------------|--4------4------4----|
------------------------|--------------------|--2------2------2----|
---9-------9-------9----|---L----------------|--2------2------2----|
--10------10------10----|---L----------------|--0------0------0----|


  W                   Q.     Q.     Q       W                 
-------------------|---------------------|-------------------|
-------------------|---------------------|-------------------|
--L----------------|--4------4------4----|--L----------------|
--L----------------|---------------------|-------------------|
--L----------------|--2------2------2----|--L----------------|
--L----------------|--3------3------3----|--L----------------|


  Q.     Q.     Q       W                    Q.      Q.      Q     
---------------------|-------------------|------------------------|
---------------------|-------------------|------------------------|
--9------9------9----|--L----------------|--11------11------11----|
---------------------|-------------------|------------------------|
--7------7------7----|--L----------------|---9-------9-------9----|
--8------8------8----|--L----------------|--10------10------10----|


   W                   Q.     Q.     Q       W                 
--------------------|---------------------|-------------------|
--------------------|---------------------|-------------------|
---L----------------|--4------4------4----|--L----------------|
--------------------|--2------2------2----|--L----------------|
---L----------------|--2------2------2----|--L----------------|
---L----------------|--0------0------0----|--L----------------|


  Q.     Q.     Q       W                   Q.     Q.     Q     
---------------------|-------------------|---------------------|
---------------------|-------------------|---------------------|
--4------4------4----|--L----------------|--9------9------9----|
---------------------|-------------------|---------------------|
--2------2------2----|--L----------------|--7------7------7----|
--3------3------3----|--L----------------|--8------8------8----|


  W                    Q.      Q.      Q        H         Q.      E   
-------------------|------------------------|------------------------|
-------------------|------------------------|------------------------|
--L----------------|--11------11------11----|---L--------------------|
-------------------|------------------------|------------------------|
--L----------------|---9-------9-------9----|---L--------------------|
--L----------------|--10------10------10----|---L--------10s------0--|


  PM      PM PM PM PM PM PM PM          PM PM PM PM  PM  PM  
  E  Q    S  S  S  S  S  S  E  E     E  E  E  E  E.  E.  E   
----------------------------------|-------------------------|
----------------------------------|-------------------------|
----------------------------------|-------------------------|
--2-------2--2--2--2--2--2--2-----|-----2--2--2--2---2---2--|
--2-------2--2--2--2--2--2--2-----|-----2--2--2--2---2---2--|
--0-------0--0--0--0--0--0--0-----|-----0--0--0--0---0---0--|


  PM    PM    PM PM PM PM PM          PM PM PM PM    
  E  E  E  E  S  S  S  S  E  E     E  E  E  E  Q     
--------------------------------|-------------------|
--------------------------------|-------------------|
--------------------------------|-------------------|
--2-----2-----2--2--2--2--2-----|-----2--2--2--2----|
--2-----2-----2--2--2--2--2-----|-----2--2--2--2----|
--0-----0-----0--0--0--0--0-----|-----0--0--0--0----|


  PM      PM PM PM PM PM PM PM          PM PM PM PM  PM  PM  
  E  Q    S  S  S  S  S  S  E  E     E  E  E  E  E.  E.  E   
----------------------------------|-------------------------|
----------------------------------|-------------------------|
----------------------------------|-------------------------|
--2-------2--2--2--2--2--2--2-----|-----2--2--2--2---2---2--|
--2-------2--2--2--2--2--2--2-----|-----2--2--2--2---2---2--|
--0-------0--0--0--0--0--0--0-----|-----0--0--0--0---0---0--|


  PM    PM    PM PM PM PM PM          PM PM PM PM    
  E  E  E  E  S  S  S  S  E  E     E  E  E  E  Q     
--------------------------------|-------------------|
--------------------------------|-------------------|
--------------------------------|-------------------|
--2-----2-----2--2--2--2--2-----|-----2--2--2--2----|
--2-----2-----2--2--2--2--2-----|-----2--2--2--2----|
--0-----0-----0--0--0--0--0-----|-----0--0--0--0----|


  E  E  E   E  E  E  E  E     E   E  E  E  E  E  E   E   
-----------10--------------|-----10-----------------10--|
--0--7--8------8--7--0--7--|--8------8--7--0--7--8------|
---------------------------|----------------------------|
---------------------------|----------------------------|
---------------------------|----------------------------|
---------------------------|----------------------------|


  E  E  E   E  E  E  E  E     E   E  E  E  E  E     E  E  E   E  E  E  E  E   
-----------10--------------|-----10--------------|-----------10--------------|
--0--7--8------8--7--0--7--|--8------8--7--0--7--|--0--7--8------8--7--0--7--|
---------------------------|---------------------|---------------------------|
---------------------------|---------------------|---------------------------|
---------------------------|---------------------|---------------------------|
---------------------------|---------------------|---------------------------|


  E   E  E  E  E  E  E   E     E  E  E   E  E  E  E  E   
-----10-----------------10--|-----------10--------------|
--8------8--7--0--7--8------|--0--7--8------8--7--0--7--|
----------------------------|---------------------------|
----------------------------|---------------------------|
----------------------------|---------------------------|
----------------------------|---------------------------|


  E   E  E  E  E  E  E   E       E  E  E  E  E  E  E  E   
-----10-----------------10--||------------3--------------|
--8------8--7--0--7--8------||---0--3--5-----5--3--0--3--|
----------------------------||*--------------------------|
----------------------------||*--------------------------|
----------------------------||---------------------------|
----------------------------||---------------------------|


  E  E  E  E  E  E  E  E   4x   E  E  E   E  E  E  E  E   
-----3-----------------3---||------------10--------------|
--5-----5--3--0--3--5------||---0--7--8------8--7--0--7--|
--------------------------*||*---------------------------|
--------------------------*||*---------------------------|
---------------------------||----------------------------|
---------------------------||----------------------------|


  E   E  E  E  E  E  E   E   4x   W                  
-----10-----------------10---||--10----------------||
--8------8--7--0--7--8-------||--------------------||
----------------------------*||--------------------||
----------------------------*||--------------------||
-----------------------------||--------------------||
-----------------------------||--------------------||




Duration Legend
---------------
W - whole
H - half
Q - quarter
E - 8th
S - 16th
T - 32nd
X - 64th
. - note dotted
|-n-|  - n-tuplets


Tablature Legend
----------------
L - tied note
x - dead note
g - grace note
(n) - ghost note
> - accentuded note
NH - natural harmonic
AH - artificial harmonic
TH - tapped harmonic
SH - semi harmonic
PH - pitch harmonic
h - hammer on
p - pull off
b - bend
br - bendRelease
pb - preBend
pbr - preBendRelease
brb - bendReleaseBend
\n/ - tremolo bar dip
\n - tremolo bar dive
-/n - tremolo bar Release up
/n\ - tremolo bar inverted dip
/n - tremolo bar return
-\n - tremolo bar Release down
S - shift slide
s - legato slide
/ -  slide into from below or out of upwards
\ -  slide into from above or out of downwards
~ - vibrato
W - wide vibrato
tr - trill
TP - tremolo picking
T - tapping
S - slap
P - pop
< - fade in
^ - brush up
v - brush down
Tap to rate this tab
# A B C D E F G H I J K L M N O P Q R S T U V W X Y Z