Song name
# A B C D E F G H I J K L M N O P Q R S T U V W X Y Z

The Answer - Be What You Want tab

-------------------------------------------------------------------------------
			     Be What You Want - The Answer
-------------------------------------------------------------------------------
Tabbed by: Samurai Chicken
Email: tomas.their@pp.inet.fi

This is my second tab. I could only find one tab for this song
(and with a poor rating) so I decided to try tabbing it myself,
and here's the result. Enjoy!

Tuning: Normal

Intro/Verse

e|----------------------------------------------------|
B|----------------------------------------------------|
G|-7-7-----------------------------------7---| Intro--| x1
D|-7-7--7-7-7-9-9-9--7-7-7-5-5-5--7-7-7-7--|  Verse---| x1
A|-5-5--7-7-7-9-9-9--7-7-7-5-5-5--7-7-7-5-------------|
E|------5-5-5-7-7-7--5-5-5-3-3-3--5-5-5---------------|

Pre Chorus

|-------------------------------------------------------------|
|-------------------------------------------------------------|
|-7-7---------------------------------------------------------|
|-7-7--7-7-7-9-9-9--7-7-7-5-5-5-5-5-5-5-5-7-7-7-7-7-7-7-7-----|
|-5-5--7-7-7-9-9-9--7-7-7-5-5-5-5-5-5-5-5-7-7-7-7-7-7-7-7-----|
|------5-5-5-7-7-7--5-5-5-3-3-3-3-3-3-3-3-5-5-5-5-5-5-5-5-----|

Chorus

|------------------------------------------|
|------------------------------------------|
|------------------------------------------|    x4
|-5-5-5-5-5-5-5-5-7-7-7-7-7-7-7-7----------|
|-5-5-5-5-5-5-5-5-7-7-7-7-7-7-7-7----------|
|-3-3-3-3-3-3-3-3-5-5-5-5-5-5-5-5----------|

Repeat all this once

Bridge

|---------------------------------------------|
|---------------------------------------------|
|---------------------------------------------|
|-10-10-10-10-10-10-10-10-5-5-5-5-5-5-5-5-----|
|-10-10-10-10-10-10-10-10-5-5-5-5-5-5-5-5-----|
|--8--8--8--8--8--8--8--8--3-3-3-3-3-3-3-3----|

|-------------------------------------|
|-------------------------------------|
|-7-7-7-7-7-7-7-7-7-7-7-7-7-7-7-7-----|
|-7-7-7-7-7-7-7-7-7-7-7-7-7-7-7-7-----|
|-5-5-5-5-5-5-5-5-5-5-5-5-5-5-5-5-----|
|-------------------------------------|

|---------------------------------------------|
|---------------------------------------------|
|---------------------------------------------|
|-10-10-10-10-10-10-10-10-5-5-5-5-5-5-5-5-----|
|-10-10-10-10-10-10-10-10-5-5-5-5-5-5-5-5-----|
|--8--8--8--8--8--8--8--8--3-3-3-3-3-3-3-3----|

|-------------------------------------|
|-------------------------------------|
|-------------------------------------|
|-7-5-7-7-7-7-7-7--7-5-7-7-7-7-7-7----|
|-7-5-7-7-7-7-7-7--7-5-7-7-7-7-7-7----|
|-5-3-5-5-5-5-5-5--5-3-5-5-5-5-5-5----|

Repeat Pre Chorus and "slow down" in the end for the solo.

Then play the chorus strumming the chords as you want three times
1st time= Bridge 2
2nd time= Solo
3rd time= Chorus
On the fourth time, let the chords ring out and just play half the chorus.

End on
|---|
|---|
|---|
|-3-|
|-3-|
|-5-|

And thats it. If someone's got the solo, then I would like to have it.
Tap to rate this tab
# A B C D E F G H I J K L M N O P Q R S T U V W X Y Z