Song name
# A B C D E F G H I J K L M N O P Q R S T U V W X Y Z

The Antlers - Kettering chords

Highlighted       Show chord diagrams
-------------------------------------------------------------------------------
			     KETTERING - The Antlers
-------------------------------------------------------------------------------
Tabbed by: Kyle R.K.
Email: warpig0001@gmail.com

Tuning: Standard


Brilliant song, brilliant band.


Chords used:
I'm not sure what the ones with the *'s should be called, so I'll tab them.

Am:   Am*:  C:   Em:  Em*:
-0-   -0-   -0-  -0-  -0-
-1-   -1-   -1-  -0-  -0-
-2-   -2-   -0-  -0-  -0-
-2-   -0-   -2-  -2-  -0-
-0-   -2-   -3-  -2-  -2-
-x-   -x-   -x-  -0-  -0-

I play this on guitar with the rhythm of the piano. 

Am                                        Am* C
Well I wish that I had known in that first   minute we met
    Em        Em*           Am
The unpayable debt that I'd owe to you...

And so on and so forth. When the guitar comes in later, its playing the same chords.
Tap to rate this tab
# A B C D E F G H I J K L M N O P Q R S T U V W X Y Z