The Antlers - Kettering tab

great song, i think this sounds just right
capo on the 7th fret, all chords are relative to the capo
to make the chord shapes easier, i've sharpened my B string to a C (that's a half step 
increase). it'll make the C chord much easier to finger and it's a quick fix.

whole song repeats this

e|-1-1-1-1-1-1-3-3-5-5-5-5-5-5-5-5-------------|
c|-2-2-2-2-2-2-2-2-5-5-5-5-5-5-5-5-------------|
g|-2-2-2-2-2-2-2-2-5-5-5-5-5-5-5-5-------------|
d|-0-0-0-0-0-0-0-0-3-3-3-3-3-3-3-3-------------|
a|---------------------------------------------|
E|---------------------------------------------|

e|-----------------1-1-1-1-1-1-1-1-------------|
c|-0-0-0-0-0-0-0-0-2-2-2-2-2-2-2-2-------------|
g|-2-2-2-2-0-0-0-0-2-2-2-2-2-2-2-2-------------|
d|-2-2-2-2-2-2-2-2-0-0-0-0-0-0-0-0-------------|
a|-0-0-0-0-0-0-0-0-----------------------------|
E|---------------------------------------------|

if you don't want to sharpen your B string, the chords would just be xx0231, xx0233, 
xx3565, x0221x, x0201x, xx0231
Tap to rate this tab
 
# A B C D E F G H I J K L M N O P Q R S T U V W X Y Z