Song name
# A B C D E F G H I J K L M N O P Q R S T U V W X Y Z

The Antlers - Every Night My Teeth Are Falling Out chords

(/) Slide Up  (\) Slide Down  (h) Hammer On  (p) Pull Off  (b) Bend (r) Release (v) Vibrato
Verse
E|--0--0--0--0--|
B|--0--5--0--3--|
G|--9--7--3--4--| x3
D|--9--7--4--4--|
A|--7--5--4--2--|
E|--------2-----|


End of Verse
E|--0--0--0--|
B|--7--5--0--|
G|--9--7--3--|
D|--9--7--4--| x1
A|--7--5--4--|
E|--------2--|


Chorusy bit
E|--0--0--0-        -0--0--|
B|--0--0--0-        -0--0--|
G|--4--0--7- x3    - 4--3--|
D|--4--2--7-        -5--4--|
A|--2--2--5-        -5--4--|
E|-----0----        -3--2--|

Get your jaw off the floor
E|--0--0--0-|
B|--0--0--0-|
G|--4--0--7-| x4
D|--4--2--7-|
A|--2--2--5-|
E|-----0----|

Verse2
E|--0--0--0--0--|
B|--0--5--0--3--|
G|--9--7--3--4--| x3
D|--9--7--4--4--|
A|--7--5--4--2--|
E|--------2-----|


End of Verse2
E|--0--0--0--|
B|--7--5--0--|
G|--9--7--3--|
D|--9--7--4--| x1
A|--7--5--4--|
E|--------2--|

Chorusy bit
E|--0--0--0-        -0--0--|
B|--0--0--0-        -0--0--|
G|--4--0--7- x3     -4--3--|
D|--4--2--7-        -5--4--|
A|--2--2--5-        -5--4--|
E|-----0----        -3--2--|

Get your jaw off the floor
E|--0--0--0-|
B|--0--0--0-|
G|--4--0--7-| x4
D|--4--2--7-|
A|--2--2--5-|
E|-----0----|

Ending
E|--------------|
B|--------------|
G|--4-----------|
D|--4--6--5--4--|
A|--2--6--5--4--|
E|-----4--3--2--|
Tap to rate this tab
# A B C D E F G H I J K L M N O P Q R S T U V W X Y Z