Song name
# A B C D E F G H I J K L M N O P Q R S T U V W X Y Z

The Antlers - Hounds tab

Song: Hounds
Band: The Antlers
Album: Burst Apart
Tabbed by Chris

Tuning:  EADGBd  (Capo 5th fret.  All notes relative to capo)

d--------0-----0-----0-----0-------0-----0-----0-----0------|
B------0-----0-----0-----0-------0-----0-----0-----0--------|
G--0-2-----2-----2-----2-------0-----0-----0-----0----------|
D----------------------------2------------------------------|
A-----------------------------------------------------------|
E-----------------------------------------------------------|

d--------0-----0-----0-----0-------0-----0-----0-----0------|
B------7-----7-----7-----7-------5-----5-----5-----5--------|
G----0-----0-----0-----0-------0-----0-----0-----0----------|
D-/7-------------------------4------------------------------|
A-----------------------------------------------------------|
E-----------------------------------------------------------|
Tap to rate this tab
# A B C D E F G H I J K L M N O P Q R S T U V W X Y Z