Song name
# A B C D E F G H I J K L M N O P Q R S T U V W X Y Z

The Apples In Stereo - Signal In The Sky chords

Help us improve GuitareTab! Take a short survey!
Highlighted       Show chord diagrams
Song: Signal in the Sky (Let's GO!)
Tuning: Standard


Notes on this tab:
*Riffs 1 and 2 can be played at the same time when the "F#C#EB" chord sequence is played,
*To match the recorded version of the song: play Riff 2 during the word parts of the 
and Riff 1 during the La's or any other time the chords sequence is played (including the 
section).
*the *** are to show when that part of the Riff is to be played, just so you know.
*This song uses Fuzz not distortion!

Listen to the song, and this will all make sence; it is actually a really easy and fun song!


Riff 1
   F#     C#    E    B
e:-----------------------|
B:-----------------------|
G:-----------------------|
D:-11--11-------9-9------|
A:-9---9--11-11-7-7-9--9-|
E:--------9--9------7--7-|

Riff 2
   F#   C#   E    B
e:---------------------|
B:---------------------|
G:---------------------|
D:-----------2--2------|
A:------4--4------2--2-|
E:-2--2----------------|

Riff 3                                  ***
e:-----------------------------------------------|
B:-----------------------------------------------|
G:-----------------------------------------------|
D:-----------------------11--11-11-11------------|
A:-11--11-11-11-9--9-9-9-9---9--9--9----9-10-11--|
E:-9---9--9--9--7--7-7-7----------------7-8--9---|

Riff 4                      ***
e:-----------------------------------------------|
B:-----------------------------------------------|
G:-----------------------------------------------|
D:-------------------------9--9-8-7-6-6-6-6-6----|
A:-11--11-11-11-9--9-9-9---7--7-6-5-4-4-4-4-4----|
E:-9---9--9--9--7--7-7-7-------------------------|

Riff 5
e:--------------------|
B:--------------------|
G:--------------------|
D:----4-3----2--2-1---|
A:---------4--------2-|
E:-2------------------|

------------------

Let's go!

F#    C#     E     B
Power Super Super Powers
Power Super Super Powers

F#            C#             E              B
Would you like to play a game of hide and seek now?
      La la      la  la        lala     laaaaa.
If you have X-ray eyes please promise no to peek now
      La la      la  la        lala     laaaaa.
Well first we count to ten, and then we'll have some fun now
      La la      la  la        lala     laaaaa.
Or will you fly away before we count one now?
F#            C#             E                 B  
C#
      La la      la  la        lala     laaaaa.


Riff 3                ***
Signal in the sky - oh
Riff 3                                         ***
That's when you know that you have to fly - oh
Riff 4                  ***
Signal in the sky - oooooohhhhhhh!!!!

Let's go!
F#      C#          E       B
You know you got a lot do, ooh

Let's go!
F#       C#        E       B
And everything depends on you,
E   B    C#
ooooooohhhhhhhh


F#            C#             E              B
Hey girls, hey girls, come out and play now!
      La la      la  la        lala     laaaaa.
Or do you have to hurry off and save the day now?
      La la      la  la        lala     laaaaa.
Can't you come over, watch a movie with your friends now?
      La la      la  la        lala     laaaaa.
Or will you fly away before we see the end now?
F#            C#             E                 B  
C#
      La la      la  la        lala     laaaaa.


Riff 3                ***
Signal in the sky - oh
Riff 3                                        ***
That's when you know that you have to fly - oh
Riff 4                 ***
Signal in the sky - oooooohhhhhhh!!!!


Let's go!
F#      C#          E       B
You know you got a lot do, ooh

Let's go!
F#      C#          E       B
And everything depends on you,
E   B    C#
ooooooohhhhhhhh


Riff 5
Power Super Super Powers
Power Super Super Powers
Power Super Super Powers
Riff 5                  B C C#
Power Super Super Power!

Riff 3                ***
Signal in the sky - oh
Riff 3                                        ***
That's when you know that you have to fly - oh
Riff 4                  ***
Signal in the sky - oooooohhhhhhh!!!!


Riff 1 w/Riff 5
Let's go!
(Power Super Super Powers)
You know you got a lot do, ooh
(Power Super Super Powers)
Let's go!
(Power Super Super Powers)
And everything depends on you, oooh
(Power Super Super Powers)
Related for Signal In The Sky chords