Song name
# A B C D E F G H I J K L M N O P Q R S T U V W X Y Z

The Apples In Stereo - Strawberryfire chords

Highlighted       Show chord diagrams
---------------------------------------------------------------------------
                  The Apples in stereo - Strawberryfire
---------------------------------------------------------------------------
                      Tabbed by: gutturalguitar
                      Tuning: standard

                      Strawberryfire(1999)
                      (Robert Schneider)
                      From: "Her Wallpaper Reverie"
---------------------------------------------------------------------------

A            D

strawberry design

       Dm

in her mind

           A

strawberry shine

A             D         

her mind is a plane 

          Dm

or window pane

             A

it's all the same

A                 D

coming up on on a song

            Dm

she dreams along

            A

then she is gone

A              D 

her dream is a fire

            Dm

a streaming choir

          A

strawberryfire

A      A/G       D      Dm

took a trip on a stereo song

Dmaj7     A             F     D

drifting along with the radio on

guitar solo #1 (acoustic):
e|---------------------------------|
B|-----5---5---5-3-2-0-----3---3-2-|
G|----6-6-6-6-6-------2---4-4-4----|
D|-5/7---5---4---------2/4---3-----|
A|-------0---0----0----0-----0-----|
E|---------------------------------|

A             D

strawberry surprise

         Dm

oh, what lies

                 A

'neath her green eyes

A               D

her room I have seen

               Dm

but I have not been

         A

into her dreams

A               D

her dream is so sweet

             Dm

it's all she needs

               A

just leave her be

A               D

her dream is on fire

             Dm  

and she's so tired

          A

strawberryfire

A      A/G       D      Dm

took a trip on a stereo song

Dmaj7     A             F     D

drifting along with the radio on

guitar solo #2 (acoustic):
e|-----------------------------------------------------------------------------------------|
B|-----5---5---5-3-2-0-----3---3-2--------------------------5---7-5--5-3-2-0-----3---3-2-2-|
G|----6-6-6-6-6-------2---4-4-4---6-6-4-----6--------------6-6-6----6-------2---4-4-4----2-|
D|-5/7---5---4---------2/4---3----7-7-5-----7-----------5/7---5----4---------2/4---3-----2-|
A|-------0---0----0----0-----0----7-7-5-----7--------0-0------0----0----0----0-----0-----0-|
E|--------------------------------5-5-3b3.5-5-0-0-0-2--------------------------------------|

| A | D | A | D | etc.

guitar solo #3 (electric):
e|------------------------------------------------------------------------|
B|------------------------------------------------------------------------|
G|-10b12-10b12-10b12-10b11---------------------------12b14-14b12-10b12-12-|
D|------------------------12-11-14-11h12p11--------12---------------------|
A|-----------------------------------------12-----------------------------|
E|-----------------------------------------12-12/14-----------------------|

e|-----------------------------------------------------------------------|
B|-------------------------------------------------------12h1412---------|
G|--------------------------------------------------14----------12-12p11-|
D|-11-12-14p12-11h12p11--------12-14b16-14-11b12-11-16b19----------------|
A|---------------------12------------------------------------------------|
E|---------------------12-12/14------------------------------------------|

e|-------------------------------------------------------------------------------------|
B|------12-----------------------------------------------------------------------------|
G|-12b14--14b12--14b12-----------------------------------------------------------------|
D|-------------14-----12-12p11-----11-11-----------------------------------------------|
A|----------------------------12h14-----14-12-14-----------------------------------7-9-|
E|----------------------------------------------15-15-14-15-14-12b17-15-14b15-10-10----|
Tap to rate this tab
# A B C D E F G H I J K L M N O P Q R S T U V W X Y Z