Song name
# A B C D E F G H I J K L M N O P Q R S T U V W X Y Z

The Arkells - Michigan Left tab

Intro

e-------------------------------------------------------------|
B--12-12-12-12-12-----------12-12-12-12-12-15-12\-------------|
G-----------------14-12---------------------------------------|
D-----------------------14------------------------------------|
A-------------------------------------------------------------|
E-------------------------------------------------------------|

e-------------------------------------------------------------|       x2 whole thing
B--12-12-12-12-12---------------------------------------------|
G-----------------14-12---------14-12~~~~---------------------|
D-----------------------14------------------------------------|
A-------------------------------------------------------------|
E-------------------------------------------------------------|

Verse
Repeat for entire verse
e-------------------------------------------------------------|
B-------------------------------------------------------------|
G-------------------------------------------------------------|
D-5-5-5-5-5-5-5-5-5-5-5-5-5-5-5-5-5-5-5-5-5-5-5-5-5-5-5-5-5-5-|
A-------------------------------------------------------------|
E-------------------------------------------------------------|

Pre-Chorus
Strum Patterns not shown
---5---3---------7---5---------5---3---------2---5-----------|
---5---3---------8---7---------5---3---------3---7-----------|
---5---4---------9---7---------5---4---------4---7-----------|
---7---5---------9---7---------7---5---------4---7-----------|       x2
---7---5---------7---5---------7---5---------2---5-----------|
---5---3-----------------------5---3-------------------------|

Chorus

---5---3---------7---5---------5---3---------7---5-----------|
---5---3---------8---7---------5---3---------8---7-----------|
---5---4---------9---7---------5---4---------9---7-----------|
---7---5---------9---7---------7---5---------9---7-----------|       x2
---7---5---------7---5---------7---5---------7---5-----------|
---5---3-----------------------5---3-------------------------|

---5---3---------7---5---------5---3---------2---5-----------|
---5---3---------8---7---------5---3---------3---7-----------|
---5---4---------9---7---------5---4---------4---7-----------|
---7---5---------9---7---------7---5---------4---7-----------|
---7---5---------7---5---------7---5---------2---5-----------|
---5---3-----------------------5---3-------------------------|


Repeat Intro Once


Verse #2
Guitar 2 Plays over the first part

-------------------------------------------------------------|
--15-12--------------12--------------------------------------|
--------14--------------14-12--------------------------------|   x4
-------------------------------------------------------------|
-------------------------------------------------------------|
-------------------------------------------------------------|

Repeat Pre-Chorus


Repeat Chorus


Short Guitar Break

-------------------------------------------------------------|
------------------------------------15----17-15~~------------|
---------------------------12-14/16----16--------------------|
-----------12----14-12---------------------------------------|
-----12/14----14---------------------------------------------|
-15----------------------------------------------------------|


Repeat Verse


Repeat Chorus


Outro

-12----12-15-12-------------------------12----12-15----------|
----15----------15-12-------12----12-15----15----------------|
----------------------14-------14----------------------------|   x4
-------------------------------------------------------------|
-------------------------------------------------------------|
-------------------------------------------------------------|

--3-----------------------------------------------------------|
--3-----------------------------------------------------------|
--4-----------------------------------------------------------|
--5-----------------------------------------------------------|
--5-----------------------------------------------------------|
--3-----------------------------------------------------------|
Tap to rate this tab
# A B C D E F G H I J K L M N O P Q R S T U V W X Y Z