Song name
# A B C D E F G H I J K L M N O P Q R S T U V W X Y Z

The Arma Mirage - In Negative Space tab

Help us improve GuitareTab! Take a short survey!
"In Negative Space"
By: The Arma Mirage

Tabbed by: Sid Ricard
Tuning: Drop D (DADGBe)

This is a song by a band from Lafayette, Louisiana.
You can check them out on myspace at www.myspace.com/thearmamirage
I'm a fan of their music and decided to tab out this song.
Order their EP "When the Quiet Sounds Alarm", listen to the song, and play along.
Hope you like it!

^ = strum
. = palm mute


[Intro]

Guitar 1 {0:00-0:19} (Strum the ^'s like you hear in the song)
---------------------------------------|
--7----7/-9----9/11---11-----11--------|
--8----8/10---10/11---11-----11--------|
--8----8/10---10/-8----9------9--------| (Repeat x2)
--6----6/-8----8/-8----9------9--------|
-----------------------9------9--------|
  ^       ^       ^    ^      ^

Guitar 2 {0:09-0:19}
---------------------------------------|
--------------------18---18-19-18-19---|
-----15-18-15-18-15--------------------|
--18-----------------------------------| (Repeat x4)
---------------------------------------|
---------------------------------------|
   .  .  .  .  .  .  .    .  .  .  .


[Chorus]

Guitar 1 {0:19-0:37}
----------------------------------|
--7---7--------------7------------|
--8---8/10---6-------8-----6-6----|
--8---8/10---4-------8-----6-4----| (Repeat x2)
--6---6/-8---4-------6-----4-4----|
-------------4---------------4----|

Guitar 2 {0:19-0:37}
-------------------------------------------------------|
--19~---------19~---------16~/18~----------------------|
--------15~---------15~-------------------------15~----|
-----18~---------18~-------------16~---15~16~18~-------| (Repeat x2)
-------------------------------------------------------|
-------------------------------------------------------|


[Verse 1]

Guitar 1 {0:37-1:14} (This part is clean and really low, not 100% correct)
----------------------------|
----------------------------|
----------------------------|
----6-4-8-4~----6-4-8-4~----| (Repeat x8)
--6-------------------------|
----------------------------|

Harmonics {0:37-1:14} (Probably done on a keyboard, but here are the guitar tabs for it)
--------------------------------------------------|
--------------------------------------------------|
------------------18~-------------------19~18~----|
--15~--13~18~15~-------15~--13~18~20~-------------| (Repeat x4)
--------------------------------------------------|
--------------------------------------------------|

Guitar 2 {1:05-1:14}
---------------------------------------|
--------------------18---18-19-18-19---|
-----15-18-15-18-15--------------------|
--18-----------------------------------| (Repeat x4)
---------------------------------------|
---------------------------------------|
   .  .  .  .  .  .  .    .  .  .  .


[Chorus]

Guitar 1 {1:14-1:51} (Strum the ^'s like you hear in the song)
----------------------------------|
--7---7--------------7------------|
--8---8/10---6-------8-----6-6----|
--8---8/10---4-------8-----6-4----| (Repeat x2)
--6---6/-8---4-------6-----4-4----|
-------------4---------------4----|
  ^      ^   ^       ^     ^ ^

Guitar 2 {1:14-1:51}
-------------------------------------------------------|
--19~---------19~---------16~/18~----------------------|
--------15~---------15~-------------------------15~----|
-----18~---------18~-------------16~---15~16~18~-------| (Repeat x4)
-------------------------------------------------------|
-------------------------------------------------------|


[Breakdown]

Guitar 1 {1:51-2:10} (Clean, low, not 100% correct)
----------------------------|
----------------------------|
----------------------------|
----6-4-8-4~----6-4-8-4~----| (Repeat x8)
--6-------------------------|
----------------------------|

Guitar 2 {1:51-2:00}
-----------------------------------------------|
------------------------------------------16---|
--15~--13-15---18-15~18-15~18-15~13/15-18------|
-----------------------------------------------|
-----------------------------------------------|
-----------------------------------------------|

Guitar 2 {2:00-2:10}
-----------16~---------18~---------16~---------18~---|
-----18-19-------18-19-------18-19-------18-19-------|
--18----------18----------18----------18-------------|
-----------------------------------------------------|
-----------------------------------------------------|
-----------------------------------------------------|


[Verse 2]

Guitar 1 {2:10-2:28} (Clean, low, not 100% correct)
----------------|
----------------|
----------------|
----6-4-8-4-6---| (Repeat x8)
--6-------------|
----------------|

Guitar 2 {2:10-2:28}
-----------16----------------18----------------16----------------18---------|
-----18-19----19-18----18-19----19-18----18-19----19-18----18-19----19-18---|
--18----------------18----------------18----------------18------------------|
----------------------------------------------------------------------------| (Repeat x4)
----------------------------------------------------------------------------|
----------------------------------------------------------------------------|
   .  .  .  .  .  .  .  .  .  .  .  .  .  .  .  .  .  .  .  .  .  .  .  .

Guitar 1 {2:28-2:47}
----------------------------|
----------------------------|
--1-1-1-1-1-1-1-1-1-1-1-1---| (Repeat x4)
--4-4-4-4-4-4-4-4-4-4-4-4---|
----------------------------|
----------------------------|

Guitar 2 {2:28-2:47}
-----------------------------------------------------|
-----------------------------------------------------|
--15~---------15~---------15~18~------15~------------|
-----18~16~15~---18~16~15~------18~16~---18~16~15~---|
-----------------------------------------------------|
-----------------------------------------------------|


[Breakdown]

Guitar 1 {2:47-3:06)
-------------------------------|
--------------------------0~---|
--1111111111111111111111113~---|
--444444444444444444444444-----| (Repeat x2)
-------------------------------|
-------------------------------|

Harmonics {2:47-3:06} (Probably done on a keyboard, but here are the guitar tabs for it)
-----------------------------------|
-----------------------------------|
--------18~15~------18~15~---------|
--16~---------18~16~------18~16~---|
-----------------------------------|
-----------------------------------|

Guitar 2 {3:02-3:06}
--------16-18-16-18-16-18-16-18-16-18---|
--18-19---------------------------------|
----------------------------------------|
----------------------------------------|
----------------------------------------|
----------------------------------------|
   .  .  .  .  .  .  .  .  .  .  .  .

Guitar 1 {3:06-3:43}
-----------------------------------------------------|
--------------------------000000000000000000000000---|
--111111111111111111111111333333333333333333333333---| (Repeat x4)
--444444444444444444444444---------------------------|
-----------------------------------------------------|
-----------------------------------------------------|

Guitar 2 {3:06-3:24} (Strum each note really fast until the next note)
--18---16-------------------------------------|
------------19---18----------------------16---|
--------------------18-15---13---15---18------|
----------------------------------------------|
----------------------------------------------|
----------------------------------------------|

Guitar 2 {324:-3:43} (Strum each note really fast until the next note)
--18---16--------------------------------------|
------------19---18--------------------16-18---|
--------------------18-15---13---15-18---------|
-----------------------------------------------|
-----------------------------------------------|
-----------------------------------------------|


[Outro]

Guitar 1 {3:43-4:04}
--------4-------|
----2-------2---|
----------------|
--4---4---4-----| (Repeat until End)
----------------|
----------------|
  .

Guitar 2 {3:43-4:04}
-----------16----------------18----------------16----------------18---------|
-----18-19----19-18----18-19----19-18----18-19----19-18----18-19----19-18---|
--18----------------18----------------18----------------18------------------|
----------------------------------------------------------------------------| (Repeat until End)
----------------------------------------------------------------------------|
----------------------------------------------------------------------------|
   .  .  .  .  .  .  .  .  .  .  .  .  .  .  .  .  .  .  .  .  .  .  .  .


If you have any questions or comments...

Email: zooyork023@yahoo.com
Myspace: www.myspace.com/djtrik

Enjoy =)

The Arma Mirage
www.myspace.com/thearmamirage
Related for In Negative Space tab