Song name
# A B C D E F G H I J K L M N O P Q R S T U V W X Y Z

The Arrows - In The Words Of Satan tab

In The Words By The Arrows
From the Album:
In The Words Of Satan.

Visit The Official Band's Website:
http://www.thearrowsband.com/

Tuning:
CADGBE

Notes: Your going to need to tune the thickest string down to C for the bass part of the piano.
This is just tabbed for the notes so just figure out the rhythm.
Enjoy. - DESmora

[Verse]
[Chorus]
[Verse]
[Chorus]

Verse 
E|---------------------|
B|-----5-------5-------|
G|-----5-------5-------|
D|---------------------|
A|---------------------|
C|--2-------2----------|

E|----------------|
B|----------------|
G|-----7----------|
D|-----9----------|
A|----------------|
C|--7-------5-----|

E|----------------------|
B|-----3--------3-------|
G|-----4--------4-------|
D|----------------------|
A|----------------------|
C|--4--------4----------|

E|----------------|
B|-----5----------|
G|-----5----------|
D|----------------|
A|----------------|
C|--5-------------|

E|-------------------|
B|-----5---------5---|
G|-----5---------5---|
D|-------------------|
A|-------------------|
C|--5--------5-------|

E|-------------------|
B|-------------------|
G|------7------------|
D|------9------------|
A|-------------------|
C|--7-------7--------|

E|-------------------|
B|-----5-----5----5--|
G|-----4-----4----3--|
D|-------------------|
A|-------------------|
C|--0-----0----------|

Chorus:

E|---------------|
B|---------------|
G|--5------------|
D|--3------------|
A|--3------------|
C|--5------------|

E|--------------|
B|--------------|
G|--5-----------|
D|--3-----------|
A|--3-----------|
C|--4-----------|

E|--------|
B|--1-----|
G|--2-----|
D|--2-----|
A|--0-----|
C|--------|

E|--------|
B|--3-----|
G|--3-----|
D|--3-----|
A|--1-----|
C|--------|

E|---------------------|
B|---------------------|
G|---------------------|
D|---------------------|
A|--3---------5--------|
C|--5---------7--------|
Tap to rate this tab
 
# A B C D E F G H I J K L M N O P Q R S T U V W X Y Z