Song name
# A B C D E F G H I J K L M N O P Q R S T U V W X Y Z

The Asbestos - Cross And Crows tab

2:30

E|---------------------------------------------------------------------------|
B|--4-5-4------------4-5-4-----------4-5-4-----------------------------------|
G|---------4----------------4-------------------6r(6)h4--------6r(6)h4-------|
D|------------4----------------4-----------------------6--------------6------|
A|---------------------------------------------------------------------------|
E|---------------------------------------------------------------------------|

E|----------------------------------------------------------3--0-------------|
B|-------------------------------------------------4--4--5--------0--2~------|
G|----4--3-----4h-3h-4h-3h-4h-3h-4h-3h-4h-3h-4-------------------------------|
D|---------------------------------------------------------------------------|
A|---------------------------------------------------------------------------|
E|---------------------------------------------------------------------------|

       2:41

E|---------------------------------------------------------------------------|
B|---16-17-16--------------16-17-16--------------16-17-16--------------------|
G|------------16--------------------16-------------------------18r(18)h4-----|
D|---------------16--------------------16--------------------------------18--|
A|---------------------------------------------------------------------------|
E|---------------------------------------------------------------------------|


E|---------------------------------------------------------------------------|
B|---------------------------------------------------------------------------|
G|--18(18)h4---------16-15-----16h15-16h15-16h15-16h15-16h15-16--------------|
D|-----------18--------------------------------------------------------------|
A|---------------------------------------------------------------------------|
E|---------------------------------------------------------------------------|

E|---------------------------------------------------------------------------|
B|---------------------------------------------------------------------------|
G|-----8-8--9--11--11--11--13------------------------------------------------|
D|-----8-8--9--11--11--11--13------------------------------------------------|
A|-----6-6--7--9---9---9---11------------------------------------------------|
E|---------------------------------------------------------------------------|



Tablature Legend
----------------
 h   - hammer-on
 p   - pull-off
 r   - bend release (if no number after the r, then release immediately)
 /\  - slide into or out of
 PM  - palm muting
 ~   - vibrato
 P.H - pick harmonic
Note:
The Bend/Release(r)on both occasions is 1/2
Tap to rate this tab
 
# A B C D E F G H I J K L M N O P Q R S T U V W X Y Z