The Asbestos - Light Camera And Action tab

Guitar 1 = David Donoso

INTRO
X2
E-----------------------------------------2-2-2-2----1-1-1--------------|
B-------6-6-------------6---4-------------2-2-2-2----1-1-1--------------|
G-------6-6-------------6---6-------------3-3-3-3----2-2-2--------------|
D-------6-6-------------------------------4-4-4-4----3-3-3--------------|
A-----------------4-4---------------------4-4-4-4----3-3-3--------------|
E-5-6-----------------------------2-2-----2-2-2-2----1-1-1--------------|

E-----------------------------------------------------------|
B-----------------------------------------------------------|
G-8----6----5-----3-----2-----8-----6-----5-5-5-5-5-5----3--|
D-8----6----6-----4-----3-----8-----6-----6-6-6-6-6-6----4--|
A-6----4----6-----4-----3-----6-----4-----6-6-6-6-6-6----4--|
E-6----4----4-----2-----1-----6-----4-----4-4-4-4-4-4----2--|

Coro
E-------------------------------------------------------|
B-------------------------------------------------------|
G-------------------------------------------------------|
D-8-8-8-8-8----4-4-4-4-4----6-6-6-6-6----4---6---4---3--|
A-8-8-8-8-8----4-4-4-4-4----6-6-6-6-6----4---6---4---3--|
E-6-6-6-6-6----2-2-2-2-2----4-4-4-4-4----2---4---2---1--|



E----------------------------------------------------------|
B----------------------------------------------------------|
G--------------6-6-6-6-6-----------------------------------|
D-8-8-8-8-8----6-6-6-6-6----6-6-6-6-6----4----6----4----3--|
A-8-8-8-8-8----4-4-4-4-4----6-6-6-6-6----4----6----4----3--|
E-6-6-6-6-6----4-4-4-4-4----4-4-4-4-4----2----4----2----1--|

Bridge
E-----------------------------------------------------------------------|
B-----------------------------------------------------------------------|
G-----------------------------------------------------------------------|
D-----------------------------------------------------------------------|
A--------4--6-6--7-7-7-7--6--4-----------------4-4----------------------|
E-6-6--------------------------------6--4--6--6--------4-4-4-4-5-5-5-5--|

E-------------------------------------------------------------------------|
B-------------------------------------------------------------------------|
G-------------------------------------------------------------------------|
D-------------------------------------------------------------------------|
A--------4--6-6--7-7-7-7--6--4--------------------4--4--4-----------------|
E-6-6--------------------------------6--4--6--6--6------------4-----------|





Verso
X2
E------------------------------------------------------------------------------------------------|
B------------------------------------------------------------------------------------------------|
G------------------------------------------------------------------------------------------------|
D-----------------------------------4-4-4-4-4-4-4-4-4-4-4-4-4-4-4---3-3-3-3-3-3-3-3-3-3-3-3-3-3--|
A-------------------4--6--7--4--6---4-4-4-4-4-4-4-4-4-4-4-4-4-4-4---3-3-3-3-3-3-3-3-3-3-3-3-3-3--|
E-4--5--6--4--6---------------------2-2-2-2-2-2-2-2-2-2-2-2-2-2-2---1-1-1-1-1-1-1-1-1-1-1-1-1-1--|

E-------------------------------------------------------------------|
B-------------------------------------------------------------------|
G-8----6----5-----3-----2-----8-----6-----5-5-5-5-5-5----3-3-3---2--|
D-8----6----6-----4-----3-----8-----6-----6-6-6-6-6-6----4-4-4---3--|
A-6----4----6-----4-----3-----6-----4-----6-6-6-6-6-6----4-4-4---3--|
E-6----4----4-----2-----1-----6-----4-----4-4-4-4-4-4----2-2-2---1--|

Coro
X2
E-------------------------------------------------------|
B-------------------------------------------------------|
G-------------------------------------------------------|
D-8-8-8-8-8----4-4-4-4-4----6-6-6-6-6----4---6---4---3--|
A-8-8-8-8-8----4-4-4-4-4----6-6-6-6-6----4---6---4---3--|
E-6-6-6-6-6----2-2-2-2-2----4-4-4-4-4----2---4---2---1--|



E----------------------------------------------------------|
B----------------------------------------------------------|
G--------------6-6-6-6-6-----------------------------------|
D-8-8-8-8-8----6-6-6-6-6----6-6-6-6-6----4----6----4----3--|
A-8-8-8-8-8----4-4-4-4-4----6-6-6-6-6----4----6----4----3--|
E-6-6-6-6-6----4-4-4-4-4----4-4-4-4-4----2----4----2----1--|

Solo
X2
E------------------------------------------------------------------------------------|
B------------------------------------------------------------------------------------|
G------------------------------------------------------------------------------------|
D------------------------------------------------------------------------6-----------|
A----4--6--7--6--4------4--6--7--6--4-------4--6--7--6--4----4---7--6--4-------------|
E-6--------------------6-------------------6--6-------------------6---------------6--|

E---------------------------------------------------------------------------|
B-11-11-11-11---11-14---11-11-11-11--11-14---11-11-11-11---11-14---11-11-11-|
G---------------------------------------------------------------------------|
D---------------------------------------------------------------------------|
A---------------------------------------------------------------------------|
E---------------------------------------------------------------------------|

-----------6------------------|
-----9-6----------------------|
----------------9-8-6-8-6-----|
---------------------------8--|
------------------------------|
------------------------------|



Cambio
X2
E-------------------------------------------|
B-------------------------------------------|
G--------------6-6-6-6----------------------|
D-8-8-8-8----6-6-6-6----6-6-6-6----7-7-7-7--|
A-8-8-8-8----4-4-4-4----6-6-6-6----7-7-7-7--|
E-6-6-6-6----4-4-4-4----4-4-4-4----5-5-5-5--|

E---------------------------------------|
B---------------------------------------|
G--------6-6-6-6------------------------|
D-8-8----6-6-6-6----6-6-6-6----7-7-7-7--|
A-8-8----4-4-4-4----6-6-6-6----7-7-7-7--|
E-6-6----4-4-4-4----4-4-4-4----5-5-5-5--|

E-------------------------------------------|
B-------------------------------------------|
G------------6-6-6-6------------------------|
D-8-8-8-8----6-6-6-6----6-6-6-6----7-7-7-7--|
A-8-8-8-8----4-4-4-4----6-6-6-6----7-7-7-7--|
E-6-6-6-6----4-4-4-4----4-4-4-4----5-5-5-5--|




X2
E-------------------------------------|
B-------------------------------------|
G-------------------------------------|
D-4-4-4-4-4-4-4-4----3-3-3-3-3-3-3-3--|
A-4-4-4-4-4-4-4-4----3-3-3-3-3-3-3-3--|
E-2-2-2-2-2-2-2-2----1-1-1-1-1-1-1-1--|

Coro final
E-------------------------------------------|
B-------------------------------------------|
G-------------------------------------------|
D-8-8-8-8----4-4-4-4----6-6-6-6----3-3-3-3--|
A-8-8-8-8----4-4-4-4----6-6-6-6----3-3-3-3--|
E-6-6-6-6----2-2-2-2----4-4-4-4----1-1-1-1--|

E---------------------------------------------|
B---------------------------------------------|
G------------6-6-6-6--------------------------|
D-8-8-8-8----6-6-6-6----6-6-6-6----4-4---3-3--|
A-8-8-8-8----4-4-4-4----6-6-6-6----4-4---3-3--|
E-6-6-6-6----4-4-4-4----4-4-4-4----2-2---1-1--|


E---------------------------------------------|
B---------------------------------------------|
G---------------------------------------------|
D-8-8-8-8----4-4-4-4----6-6-6-6----3-3-3-3-3--|
A-8-8-8-8----4-4-4-4----6-6-6-6----3-3-3-3-3--|
E-6-6-6-6----2-2-2-2----4-4-4-4----1-1-1-1-1--|


E-------------------------------------------------|
B-------------------------------------------------|
G------------6-6-6-6------------------------------|
D-8-8-8-8----6-6-6-6----6-6----4-4-4-4---3-3-3-3--|
A-8-8-8-8----4-4-4-4----6-6----4-4-4-4---3-3-3-3--|
E-6-6-6-6----4-4-4-4----4-4----2-2-2-2---1-1-1-1--|



---------------------------------------------------------------------------


Guitar 2 Jose Luis Ramirez (Pizza)



VERSO
E--6-4-4-2-1----6-4-4-4-4-4-4-4--2----------------------------------------------------|
B--4-2-4-2-1----4-2-4-4-4-4-4-4--2----------------------------------------------------|
G-------------------------------------------------------------------------------------|
D-------------------------------------------------------------------------------------|
A-------------------------------------------------------------------------------------|
E-------------------------------------------------------------------------------------|

CORO
E-----------------------------------------------------------------|
B-----------------------------------------------------------------|
G-8---10-10-10-10---8---10-10-10-10---8-8-8-8-8--6--8--6--5-------|
D-----------------------------------------------------------------|
A-6----8--8---8---8---6---8--8----8---8----6-6-6-6-6--4--6--4--3--|
E-----------------------------------------------------------------|

E--------------------------------------------------------------------|
B--------------------------------------------------------------------|
G-8---10-10-10-10-10----13--13----8-8-8----8-8-8-8-8--6--8--6--5-----|
D--------------------------------------------------------------------|
A-6----8--8---8---8--8-----11--11----6-6-6----6-6-6-6-6--4--6--4--3--|
E--------------------------------------------------------------------|




VERSO

E------------------------------------------------------------------------------|
B------------------------------------------------------------------------------|
G---------6-6-6----------------------------------------------------------------|
D--8-8-8--6-6-6--6-------------------------------------------------------------|
A--8-8-8--4-4-4--6-------------------------------------------------------------|
E--6-6-6---------4-------------------------------------------------------------|

Verso
X2
E------------------------------------------------------------------------|
B------------------------------------------------------------------------|
G------------------------------------------------------------------------|
D----4-4-4-4-4-4-4-4-4-4-4-4-4-4-4---3-3-3-3-3-3-3-3-3-3-3-3-3-3---------|
A----4-4-4-4-4-4-4-4-4-4-4-4-4-4-4---3-3-3-3-3-3-3-3-3-3-3-3-3-3---------|
E----2-2-2-2-2-2-2-2-2-2-2-2-2-2-2---1-1-1-1-1-1-1-1-1-1-1-1-1-1---------|

E--6-4-4-2-1----6-4-4-4-4-4-4--2-2-2--1-------------------------------------------------|
B--4-2-4-2-1----4-2-4-4-4-4-4--2-2-2--1-------------------------------------------------|
G---------------------------------------------------------------------------------------|
D---------------------------------------------------------------------------------------|
A---------------------------------------------------------------------------------------|
E---------------------------------------------------------------------------------------|


CORO X2

E-----------------------------------------------------------------|
B-----------------------------------------------------------------|
G-8---10-10-10-10---8---10-10-10-10---8-8-8-8-8--6--8--6--5-------|
D-----------------------------------------------------------------|
A-6----8--8---8---8---6---8--8----8---8----6-6-6-6-6--4--6--4--3--|
E-----------------------------------------------------------------|

E--------------------------------------------------------------------|
B--------------------------------------------------------------------|
G-8---10-10-10-10-10----13--13----8-8-8----8-8-8-8-8--6--8--6--5-----|
D--------------------------------------------------------------------|
A-6----8--8---8---8--8-----11--11----6-6-6----6-6-6-6-6--4--6--4--3--|
E--------------------------------------------------------------------|

SOLO
E------------------------------------------------------------------------------|
B------------------------------------------------------------------------------|
G--8--------------------------------------6-6-6--------------------------------|
D---------8----8-8---8----8--8----8-8-8---6-6-6--6-6-6-6-6-6--7-7-7------------|
A--6------8----8-8---8----8--8----8-8-8---4-4-4--6-6-6-6-6-6--7-7-7------------|
E---------6----6-6---6----6--6----6-6-6----------4-4-4-4-4-4--5-5-5------------|



X2
E--------------------------------------------------------------------|
B--------------------------------------------------------------------|
G-------------------6-6-6--------------------------------------------|
D-----------8-8-8---6-6-6--6-6-6-6-6-6--7-7-7------------------------|
A-----------8-8-8---4-4-4--6-6-6-6-6-6--7-7-7------------------------|
E-----------6-6-6----------4-4-4-4-4-4--5-5-5------------------------|

E--------------------------------------------------------------------|
B--------------------------------------------------------------------|
G-------------------6-6-6--------------------------------------------|
D-----------8-8-8---6-6-6--6-----------------------------------------|
A-----------8-8-8---4-4-4--6-----------------------------------------|
E-----------6-6-6----------4-----------------------------------------|

CAMBIO
X2
E----------------------------------------------------------------------|
B----------------------------------------------------------------------|
G--3-3-3-3--6-6-6-6--8-8-8-8---11--11--11--11--10-10-10-10-------------|
D----------------------------------------------------------------------|
A--1-1-1-1--4-4-4-4--6-6-6-6----9----9----9---9----8--8---8--8---------|
E----------------------------------------------------------------------|



E--------------------------------------------------------------------|
B--------------------------------------------------------------------|
G--3-3--6-6-6-6---8-8-8-8--11-11-11-11--10-10-10-10------------------|
D--------------------------------------------------------------------|
A--1-1--4-4-4-4---6-6-6-6----9--9--9--9-----8--8---8--8--------------|
E--------------------------------------------------------------------|

E-----------------------------------------------------------------------|
B-----------------------------------------------------------------------|
G--3-3-3-3--6-6-6-6--8-8-8-8---11--11--11--11--10-10-10-10--------------|
D-----------------------------------------------------------------------|
A--1-1-1-1--4-4-4-4--6-6-6-6----9----9----9---9----8--8---8--8----------|
E-----------------------------------------------------------------------|

E--------------------------------------------------------------|
B--------------------------------------------------------------|
G--8-----------------------------------------------------------|
D------4-4-4-4-4-4-4-4----3-3-3-3-3-3-3-3----------------------|
A--6---4-4-4-4-4-4-4-4----3-3-3-3-3-3-3-3----------------------|
E------2-2-2-2-2-2-2-2----1-1-1-1-1-1-1-1----------------------|






E-------------------------------------------------------|
B-------------------------------------------------------|
G-------------------------------------------------------|
D-4-4-4-4-4-4-4-4----3-3-3-3-3-3-3-3--------------------|
A-4-4-4-4-4-4-4-4----3-3-3-3-3-3-3-3--------------------|
E-2-2-2-2-2-2-2-2----1-1-1-1-1-1-1-1--------------------|

CORO FINAL
E----------------------------------------------------------------------------|
B----------------------------------------------------------------------------|
G-3-3-3-3-3-3-3-3---6-6-6-6--5-5-5-5-----------------------------------------|
D----------------------------------------------------------------------------|
A-1-1-1-1-1-1-1-1---4-4-4-4--3-3-3-3-----------------------------------------|
E----------------------------------------------------------------------------|

E----------------------------------------------------------------------------|
B----------------------------------------------------------------------------|
G-3-3-3-3---6-6-6-6--5-5-5-5---6-6--5-5--------------------------------------|
D----------------------------------------------------------------------------|
A-1-1-1-1---4-4-4-4--3-3-3-3---4-4--3-3--------------------------------------|
E----------------------------------------------------------------------------|



E----------------------------------------------------------------------------|
B----------------------------------------------------------------------------|
G-3-3-3-3-3-3-3-3---6-6-6-6--5-5-5-5-----------------------------------------|
D----------------------------------------------------------------------------|
A-1-1-1-1-1-1-1-1---4-4-4-4--3-3-3-3-----------------------------------------|
E----------------------------------------------------------------------------|

E---------------------------------------------------------------------------------|
B---------------------------------------------------------------------------------|
G-3-3-3-3---6-6-6-6--5-5---6-6-6-6----5-5-5-5--3----------------------------------|
D---------------------------------------------------------------------------------|
A-1-1-1-1---4-4-4-4--3-3----4-4-4-4---3-3-3-3--1----------------------------------|
E---------------------------------------------------------------------------------|
Tap to rate this tab
 
# A B C D E F G H I J K L M N O P Q R S T U V W X Y Z