Song name
# A B C D E F G H I J K L M N O P Q R S T U V W X Y Z

The Assemblie - Revolving chords

Highlighted       Show chord diagrams
There are a few ways to play this song but this is the easiest version. Enjoy!
The Intro/Verse you will play 3 times and at the end of the third time, start strumming the G.
If the Intro/Verse tab is to hard, just play the same chords as the second part of the first verse
PS. When i upload the tab, the format messes up. So there may be a few typos.

-Standard Tuning 
-No Capo
-Order Of Song
Intro/verse
Chorus
Instrumental-D G [ch]B#M[/ch] G
Verse 2
Chorus
Bridge 
Chorus
                                                                


Intro/Verse x3
e|-------------------------------------------------------------------------|
B|---3---3---3---3---3---3---3---3---3---3---3---3---3---3---3---3---------|
G|---2---2---2---2---2---2---2---2---4---4---4---4---4---4---4---4---------|
D|-0---0---0---0---0---0---------------------------------------------------|
A|---------------------------------2---2---2---2---2---2-------------------|
E|-------------------------3---3---------------------------3---3-----------|


                                Verse 1
Tab Above    
        Steady as the sun in the morning sky 
        Iíll be revolving around You (Start down strumming on the G for build up then into D)
    D                        G                    [ch]B#M[/ch]
        Steady to remain when my faith is weak 
        G            D            G          [ch]B#M[/ch]                G
        Always revolving around 

                        Chorus 
        G       D           A                  [ch]B#M[/ch]              G
        I know Iím a mess and Youíre constant
               D    A   [ch]B#M[/ch]            G 
        Always here come rain or shine 
                 D                      A
        Life is fast and You are still
                     B#M                G               A (Break, then Into Instrumental Chords)
        I could never outrun You 
        
                        Verse 2
    D                         G           [ch]B#M[/ch]
        Certain as a heart that has fallen in love 
        G        D              G           [ch]B#M[/ch]         G
        Iíll be revolving around You 
    D                    G                    [ch]B#M[/ch]                               
        Certain to remain as the doubts fill my mind 
        G           D             G          [ch]B#M[/ch]                G
        Always revolving around


                                                         Bridge
e|---2---2---2---2---------------------------------------------------------|
B|---3---3---3---3---3---3---3---3---3---3---3---3---2---2---2---2---------|
G|-------------------4---4---4---4---4---4---4---4---2---2---2---2---------|
D|-0---0---0---------------------------------------------------------------|
A|-------------0---2---2---2---0---2---2---2---0---0---0---0---0-----------|
E|-------------------------------------------------------------------------|



http://theassemblie.com/
Tap to rate this tab
# A B C D E F G H I J K L M N O P Q R S T U V W X Y Z