Song name
# A B C D E F G H I J K L M N O P Q R S T U V W X Y Z

The Asteroids Galaxy Tour - The Golden Age tab

  Song: The Golden Age
 Album: Fruit
Artist: The Asteroids Galaxy Tour
-------------------------------------------------------------------------------
Tabbed by: Hunter Morris
Email: hunterbmorris@gmail.com

Tuning: Standard (E A D G B e)


Most of the song:
 e|---------------------------------|
 B|---------------------------------|
 G|--2---2---2---2---0---0---0---0--|  x 3 in the intro
 D|--3---3---3---3---1---1---1p0-1--|  x 7 in verse, chorus
 A|--3---3---3---3---3---3---3---3--|
 E|--1---1---1---1------------------|

 e|---------------------------------|
 B|------------------2~~~~~~~~~~~~--|
 G|--2---2---2---2---3~~~~~~~~~~~~--|
 D|--3---3---3---3---3~~~~~~~~~~~~--|
 A|--3---3---3---3---1~~~~~~~~~~~~--|
 E|--1---1---1---1------------------|

Interlude:
 e|--------------------------------|--------------------------------|
 B|---------------------     ------|--------------------------------|
 G|--------------------  x 3  -----|--------------------------------|
 D|---------------------     ------|------------8-------------------|
 A|----7---6-4---6-----------------|----7---6-4-----7------6-4-6----|
 E|------------------6-------------|--------------------------------|

 e|--------------------------------|--------------------------------|
 B|---------------------     ------|--------------------------------|
 G|--------------------  x 3  -----|--------------------------------|
 D|---------------------     ------|--------------------------------|
 A|----7---6-4---6-----------------|---4~~~~--5~~~~--6~~~~--7~~~~---|
 E|------------------6-------------|--------------------------------|
Tap to rate this tab
# A B C D E F G H I J K L M N O P Q R S T U V W X Y Z