Song name
# A B C D E F G H I J K L M N O P Q R S T U V W X Y Z

The Astronauts - Baja tab

http://koti.mbnet.fi/wdd/astronauts.htm
-------------------------------------------------------------------------------
			     BAJA - The Astronauts
-------------------------------------------------------------------------------
Tabbed by: Gabriel Encinas

e|---------------------0~~~~~~~-----------|
B|----------------------0~~~~~~-----------|       x3
G|-----------------------1~~~~~-----------|
D|------------------------2~~~~-----------|
A|-------------------------2~~~-----------|
E|0-0-0-0-0-0-0-0-0-0-------0~~-----------|
  --PM---------------  Let Those Ones Ring

***

e|----------4---------------4-5------4-4-4-4-5-7-4-5------5-4---4---|
B|5-5-5-5-7---5-----7-7-7-7-----7--------------------7--------7---5-|
G|------------------------------------------------------------------|
D|------------------------------------------------------------------|
A|------------------------------------------------------------------|
E|------------------------------------------------------------------|

e|------------------------------------------------------------------|
B|------------------------------------------------------------------|
G|------------------------------------------------------------------|
D|------------------------------------------------------------------|
A|555555555/7~~~~~----------555555555555-2-0-2~~~~~-----------------|
E|------------------------------------------------------------------|
  Tremolo--

e|----------4---------------4-5------4-4-4-4-5-7-4-5------5-4---4---|
B|5-5-5-5-7---5-----7-7-7-7-----7--------------------7--------7---5-|
G|------------------------------------------------------------------|
D|------------------------------------------------------------------|
A|------------------------------------------------------------------|
E|------------------------------------------------------------------|

e|------------------------------------------------------------------|
B|------------------------------------------------------------------|
G|------------------------------------------------------------------|
D|------------------------------------------------------------------|
A|555555555/7~~~~~----------555555555555-2-0-2~~~~~-----------------|
E|------------------------------------------------------------------|

e|------------------------------------2----------|
B|------9-10-12----10-9-7---5-8-5-------5-4------|
G|----9----------7----------------5---------4----|
D|1s9----------7----------5---------4------------|
A|-----------------------------------------------|
E|-----------------------------------------------|

e|----------------------------------------------|
B|----9-9-10-12----10-9-7---5-8-5---4----(4)s9--|
G|--9------------7----------------5-4----(4)s9--|
D|9------------7----------5---------4----(4)s9--|
A|----------------------------------------------|
E|----------------------------------------------|

e|----------4---------------4-5------4-4-4-4-5-7-4-5------5-4---4---|
B|5-5-5-5-7---5-----7-7-7-7-----7--------------------7--------7---5-|
G|------------------------------------------------------------------|
D|------------------------------------------------------------------|
A|------------------------------------------------------------------|
E|------------------------------------------------------------------|

e|------------------------------------------------------------------|
B|------------------------------------------------------------------|
G|------------------------------------------------------------------|
D|------------------------------------------------------------------|
A|555555555/7~~~~~----------555555555555-2-0-2~~~~~-----------------|
E|------------------------------------------------------------------|

e|----------4---------------4-5------4-4-4-4-5-7-4-5------5-4---4---|
B|5-5-5-5-7---5-----7-7-7-7-----7--------------------7--------7---5-|
G|------------------------------------------------------------------|
D|------------------------------------------------------------------|
A|------------------------------------------------------------------|
E|------------------------------------------------------------------|

e|------------------------------------------------------------------|
B|------------------------------------------------------------------|
G|------------------------------------------------------------------|
D|------------------------------------------------------------------|
A|555555555/7~~~~~----------555555555555-2-0-2~~~~~-----------------|
E|------------------------------------------------------------------|

e|------------------------------------2----------|
B|------9-10-12----10-9-7---5-8-5-------5-4------|
G|----9----------7----------------5---------4----|
D|1s9----------7----------5---------4------------|
A|-----------------------------------------------|
E|-----------------------------------------------|

e|----------------------------------------------|
B|----9-9-10-12----10-9-7---5-8-5---4----(4)s9--|
G|--9------------7----------------5-4----(4)s9--|
D|9------------7----------5---------4----(4)s9--|
A|----------------------------------------------|
E|----------------------------------------------|

e|----------4---------------4-5------4-4-4-4-5-7-4-5------5-4---4---|
B|5-5-5-5-7---5-----7-7-7-7-----7--------------------7--------7---5-|
G|------------------------------------------------------------------|
D|------------------------------------------------------------------|
A|------------------------------------------------------------------|
E|------------------------------------------------------------------|

e|------------------------------------------------------------------|
B|------------------------------------------------------------------|
G|------------------------------------------------------------------|
D|------------------------------------------------------------------|
A|555555555/7~~~~~----------555555555555-2-0-2~~~~~-----------------|
E|------------------------------------------------------------------|

e|----------4---------------4-5------4-4-4-4-5-7-4-5------5-4---4---|
B|5-5-5-5-7---5-----7-7-7-7-----7--------------------7--------7---5-|
G|------------------------------------------------------------------|
D|------------------------------------------------------------------|
A|------------------------------------------------------------------|
E|------------------------------------------------------------------|

e|------------------------------------------------------------------|
B|------------------------------------------------------------------|
G|------------------------------------------------------------------|
D|------------------------------------------------------------------|
A|555555555/7~~~~~----------555555555555-2-0-2~~~~~-----------------|
E|------------------------------------------------------------------|


e|--------------------...
B|--------------------...
G|--------------------...
D|--9h7------9h7------...
A|--------------------...
E|------5h7------5h7--...



| /  slide up
| \  slide down
| h  hammer-on
| p  pull-off
| ~  vibrato
| +  harmonic
| x  Mute note
===============================================================================
Tap to rate this tab
# A B C D E F G H I J K L M N O P Q R S T U V W X Y Z