Song name
# A B C D E F G H I J K L M N O P Q R S T U V W X Y Z

The Atlantics - Bombora tab


The Atlantics
Bombora

BOMBORA


INTRO (drumming
and guitar effects)       PART 1

---------------|-17--17--|----17----17------------------------|-------------|
---------------|-21b-21b-|-17----17----20-20-20-18-20-18-17---|-------------|
---------------|---------|----------------------------------19|-------------|
---------------|---------|------------------------------------|-------------|
---------------|---------|------------------------------------|-------------|
---------------|---------|------------------------------------|-------------|


----17----17-20-20-20-18-20-18-17---|---17---17------------------------|----|
-17----17-------------------------20|17---17----20-20-20-18-20-18-17---|----|
------------------------------------|--------------------------------19|----|
------------------------------------|----------------------------------|----|
------------------------------------|----------------------------------|----|
------------------------------------|----------------------------------|----|


---------------|------------------------------------------------------------|
-17-17-15-14---|------------------------------------------------------------|
-------------14|------------------------------------------------------------|
---------------|------------------------------------------------------------|
---------------|------------------------------------------------------------|
---------------|------------------------------------------------------------|


-------------------------------|----------------------------|---------------|
-------------------------------|----------------------------|---------------|
-------------------------------|----------------------------|---------------|
------7---7--------------------|---7---7-10-10-10-8-10-8-7-5|---------------|
----7---7---10-10-10-8-10-8-7-5|-7---7----------------------|---------------|
-------------------------------|----------------------------|---------------|


----------------------------|----------|------------------------------------|
----------------------------|----------|------------------------------------|
----------------------------|----------|------------------------------------|
---7---7--------------------|----------|------------------------------------|
-7---7---10-10-10-8-10-8-7-5|-7-7-5-4-0|------------------------------------|
----------------------------|----------|------------------------------------|


-------------|-------------------|-------------|-------|--------------------|
-------------|-------------------|-------------|-------|--------------------|
---7-9-10-9-7|-------------------|---7-9-10-9-7|-6-7-9v|--------------------|
-7-----------|-10-8-7------------|-7-----------|-------|--------------------|
-------------|--------7-7-0-0----|-------------|-------|--------------------|
-------------|----------------0-0|-------------|-------|--------------------|


-------------|--------------------|---------------|-------------------------|
-------------|--------------------|------------10v|-------------------------|
---7-9-10-9-7|-6-7-9--------------|---7-7-10-9----|-------------------------|
-7-----------|-------9-9----------|-7-------------|-------------------------|
-------------|-----------11-11-7-7|---------------|-------------------------|
-------------|--------------------|---------------|-------------------------|


-----------------------|----------------------|-----------------------------|
-----------------------|----------------------|-----------------------------|
-----------------------|----------------------|-----------------------------|
-7--7-7-7--------------|-5-5-5----------------|-2-2-2-5-3-2-0---------------|
----------10-8-10-8-7-7|-------8-7-8-7-7p5-5-5|-----------------------------|
-----------------------|----------------------|-----------------------------|


----------------------------|------------------------------|----------------|
----------------------------|------------------------------|----------------|
----------------------------|------------------------------|----------------|
---7---7--------------------|---7---7---10-10-10-8-10-8-7-5|----------------|
-7---7---10-10-10-8-10-8-7-5|-7---7------------------------|----------------|
----------------------------|------------------------------|----------------|


----------------------------|----------|--------------------|---------------|
----------------------------|----------|--------------------|---------------|
----------------------------|----------|--------------------|---------------|
---7---7--------------------|----------|--------------------|---------------|
-7---7---10-10-10-8-10-8-7-5|-7-7-5-4-0|--------------------|---------------|
----------------------------|----------|--------------------|---------------|


-------------|-------------------|--------------------|---------------------|
-------------|-------------------|--------------------|---------------------|
---7-9-10-9-7|-------------------|---7-9-10-9-7-6-7-9v|---------------------|
-7-----------|-10-8-7------------|-7------------------|---------------------|
-------------|--------7-7-0-0----|--------------------|---------------------|
-------------|----------------0-0|--------------------|---------------------|


---------------------------------|---------------|----|---------------------|
---------------------------------|------------10v|----|---------------------|
---7-9-10-9-7-6-7-9--------------|---7-7-10-9----|----|---------------------|
-7------------------9-9----------|-7-------------|-7--|---------------------|
------------------------11-11-7-7|---------------|---0|---------------------|
---------------------------------|---------------|----|---------------------|


--------------------|----------------------|--------------|-----------------|
--------------------|----------------------|--------------|-----------------|
--------------------|----------------------|--------------|-----------------|
-7-7-7--------------|-5-5-5----------------|-2-2-2-5-3-2-0|-----------------|
-------10-8-10-8-7-7|-------8-7-8-7-7p5-5-5|--------------|-----------------|
--------------------|----------------------|--------------|-----------------|


----17----17------------------------|----17----17-20-20-20-18-20-18-17---|--|
-17----17----20-20-20-18-20-18-17---|-17----17-------------------------20|--|
----------------------------------19|------------------------------------|--|
------------------------------------|------------------------------------|--|
------------------------------------|------------------------------------|--|
------------------------------------|------------------------------------|--|


----17----17------------------------|---------------|-----------------------|
-17----17----20-20-20-18-20-18-17---|-17-17-15-14---|-----------------------|
----------------------------------19|-------------14|-----------------------|
------------------------------------|---------------|-----------------------|
------------------------------------|---------------|-----------------------|
------------------------------------|---------------|-----------------------|
Tap to rate this tab
# A B C D E F G H I J K L M N O P Q R S T U V W X Y Z